  0
SECTION
  2
HEADER
  9
$ACADVER
  1
AC1015
  9
$ACADMAINTVER
 70
     6
  9
$DWGCODEPAGE
  3
ANSI_1252
  9
$INSBASE
 10
0.0
 20
0.0
 30
0.0
  9
$EXTMIN
 10
-861.012612926
 20
-844.2923399994
 30
0.0
  9
$EXTMAX
 10
861.0124343225
 20
7.965
 30
0.0
  9
$LIMMIN
 10
0.0
 20
0.0
  9
$LIMMAX
 10
420.0
 20
297.0
  9
$ORTHOMODE
 70
     0
  9
$REGENMODE
 70
     1
  9
$FILLMODE
 70
     1
  9
$QTEXTMODE
 70
     0
  9
$MIRRTEXT
 70
     1
  9
$LTSCALE
 40
1.0
  9
$ATTMODE
 70
     1
  9
$TEXTSIZE
 40
3.175
  9
$TRACEWID
 40
1.0
  9
$TEXTSTYLE
  7
Standard
  9
$CLAYER
  8
0
  9
$CELTYPE
  6
ByLayer
  9
$CECOLOR
 62
   256
  9
$CELTSCALE
 40
1.0
  9
$DISPSILH
 70
     0
  9
$DIMSCALE
 40
1.0
  9
$DIMASZ
 40
3.302
  9
$DIMEXO
 40
0.0
  9
$DIMDLI
 40
3.75
  9
$DIMRND
 40
0.0
  9
$DIMDLE
 40
0.0
  9
$DIMEXE
 40
3.175
  9
$DIMTP
 40
0.0
  9
$DIMTM
 40
0.0
  9
$DIMTXT
 40
3.175
  9
$DIMCEN
 40
2.5
  9
$DIMTSZ
 40
0.0
  9
$DIMTOL
 70
     0
  9
$DIMLIM
 70
     0
  9
$DIMTIH
 70
     1
  9
$DIMTOH
 70
     1
  9
$DIMSE1
 70
     0
  9
$DIMSE2
 70
     0
  9
$DIMTAD
 70
     0
  9
$DIMZIN
 70
     1
  9
$DIMBLK
  1

  9
$DIMASO
 70
     1
  9
$DIMSHO
 70
     1
  9
$DIMPOST
  1

  9
$DIMAPOST
  1

  9
$DIMALT
 70
     0
  9
$DIMALTD
 70
     3
  9
$DIMALTF
 40
0.0393700787
  9
$DIMLFAC
 40
1.0
  9
$DIMTOFL
 70
     1
  9
$DIMTVP
 40
0.0
  9
$DIMTIX
 70
     0
  9
$DIMSOXD
 70
     0
  9
$DIMSAH
 70
     0
  9
$DIMBLK1
  1

  9
$DIMBLK2
  1

  9
$DIMSTYLE
  2
ISO-25
  9
$DIMCLRD
 70
     0
  9
$DIMCLRE
 70
     0
  9
$DIMCLRT
 70
     0
  9
$DIMTFAC
 40
1.0
  9
$DIMGAP
 40
1.524
  9
$DIMJUST
 70
     0
  9
$DIMSD1
 70
     0
  9
$DIMSD2
 70
     0
  9
$DIMTOLJ
 70
     0
  9
$DIMTZIN
 70
     1
  9
$DIMALTZ
 70
     0
  9
$DIMALTTZ
 70
     0
  9
$DIMUPT
 70
     0
  9
$DIMDEC
 70
     2
  9
$DIMTDEC
 70
     2
  9
$DIMALTU
 70
     2
  9
$DIMALTTD
 70
     3
  9
$DIMTXSTY
  7
Standard
  9
$DIMAUNIT
 70
     0
  9
$DIMADEC
 70
     2
  9
$DIMALTRND
 40
0.0
  9
$DIMAZIN
 70
     0
  9
$DIMDSEP
 70
    44
  9
$DIMATFIT
 70
     3
  9
$DIMFRAC
 70
     0
  9
$DIMLDRBLK
  1

  9
$DIMLUNIT
 70
     2
  9
$DIMLWD
 70
    -2
  9
$DIMLWE
 70
    -2
  9
$DIMTMOVE
 70
     0
  9
$LUNITS
 70
     2
  9
$LUPREC
 70
     2
  9
$SKETCHINC
 40
1.0
  9
$FILLETRAD
 40
10.0
  9
$AUNITS
 70
     0
  9
$AUPREC
 70
     2
  9
$MENU
  1
.
  9
$ELEVATION
 40
0.0
  9
$PELEVATION
 40
0.0
  9
$THICKNESS
 40
0.0
  9
$LIMCHECK
 70
     0
  9
$CHAMFERA
 40
0.0
  9
$CHAMFERB
 40
0.0
  9
$CHAMFERC
 40
0.0
  9
$CHAMFERD
 40
0.0
  9
$SKPOLY
 70
     0
  9
$TDCREATE
 40
2459703.56413265
  9
$TDUCREATE
 40
2459703.81413265
  9
$TDUPDATE
 40
2459703.564189329
  9
$TDUUPDATE
 40
2459703.814189329
  9
$TDINDWG
 40
0.0000000116
  9
$TDUSRTIMER
 40
0.0000000116
  9
$USRTIMER
 70
     1
  9
$ANGBASE
 50
0.0
  9
$ANGDIR
 70
     0
  9
$PDMODE
 70
     0
  9
$PDSIZE
 40
-1.0
  9
$PLINEWID
 40
0.0
  9
$SPLFRAME
 70
     0
  9
$SPLINETYPE
 70
     6
  9
$SPLINESEGS
 70
     8
  9
$HANDSEED
  5
28E
  9
$SURFTAB1
 70
     6
  9
$SURFTAB2
 70
     6
  9
$SURFTYPE
 70
     6
  9
$SURFU
 70
     6
  9
$SURFV
 70
     6
  9
$UCSBASE
  2

  9
$UCSNAME
  2

  9
$UCSORG
 10
0.0
 20
0.0
 30
0.0
  9
$UCSXDIR
 10
1.0
 20
0.0
 30
0.0
  9
$UCSYDIR
 10
0.0
 20
1.0
 30
0.0
  9
$UCSORTHOREF
  2

  9
$UCSORTHOVIEW
 70
     0
  9
$UCSORGTOP
 10
0.0
 20
0.0
 30
0.0
  9
$UCSORGBOTTOM
 10
0.0
 20
0.0
 30
0.0
  9
$UCSORGLEFT
 10
0.0
 20
0.0
 30
0.0
  9
$UCSORGRIGHT
 10
0.0
 20
0.0
 30
0.0
  9
$UCSORGFRONT
 10
0.0
 20
0.0
 30
0.0
  9
$UCSORGBACK
 10
0.0
 20
0.0
 30
0.0
  9
$PUCSBASE
  2

  9
$PUCSNAME
  2

  9
$PUCSORG
 10
0.0
 20
0.0
 30
0.0
  9
$PUCSXDIR
 10
1.0
 20
0.0
 30
0.0
  9
$PUCSYDIR
 10
0.0
 20
1.0
 30
0.0
  9
$PUCSORTHOREF
  2

  9
$PUCSORTHOVIEW
 70
     0
  9
$PUCSORGTOP
 10
0.0
 20
0.0
 30
0.0
  9
$PUCSORGBOTTOM
 10
0.0
 20
0.0
 30
0.0
  9
$PUCSORGLEFT
 10
0.0
 20
0.0
 30
0.0
  9
$PUCSORGRIGHT
 10
0.0
 20
0.0
 30
0.0
  9
$PUCSORGFRONT
 10
0.0
 20
0.0
 30
0.0
  9
$PUCSORGBACK
 10
0.0
 20
0.0
 30
0.0
  9
$USERI1
 70
     0
  9
$USERI2
 70
     0
  9
$USERI3
 70
     0
  9
$USERI4
 70
     0
  9
$USERI5
 70
     0
  9
$USERR1
 40
0.0
  9
$USERR2
 40
0.0
  9
$USERR3
 40
0.0
  9
$USERR4
 40
0.0
  9
$USERR5
 40
0.0
  9
$WORLDVIEW
 70
     1
  9
$SHADEDGE
 70
     3
  9
$SHADEDIF
 70
    70
  9
$TILEMODE
 70
     1
  9
$MAXACTVP
 70
    64
  9
$PINSBASE
 10
0.0
 20
0.0
 30
0.0
  9
$PLIMCHECK
 70
     0
  9
$PEXTMIN
 10
1.0000000000E+20
 20
1.0000000000E+20
 30
1.0000000000E+20
  9
$PEXTMAX
 10
-1.0000000000E+20
 20
-1.0000000000E+20
 30
-1.0000000000E+20
  9
$PLIMMIN
 10
0.0
 20
0.0
  9
$PLIMMAX
 10
420.0
 20
297.0
  9
$UNITMODE
 70
     0
  9
$VISRETAIN
 70
     1
  9
$PLINEGEN
 70
     0
  9
$PSLTSCALE
 70
     1
  9
$TREEDEPTH
 70
  3020
  9
$CMLSTYLE
  2
Standard
  9
$CMLJUST
 70
     0
  9
$CMLSCALE
 40
20.0
  9
$PROXYGRAPHICS
 70
     1
  9
$MEASUREMENT
 70
     1
  9
$CELWEIGHT
370
    -1
  9
$ENDCAPS
280
     0
  9
$JOINSTYLE
280
     0
  9
$LWDISPLAY
290
     1
  9
$INSUNITS
 70
     4
  9
$HYPERLINKBASE
  1

  9
$STYLESHEET
  1

  9
$XEDIT
290
     1
  9
$CEPSNTYPE
380
     0
  9
$PSTYLEMODE
290
     1
  9
$FINGERPRINTGUID
  2
{02c92026-2561-41b2-ab62-79052d7a44ca}
  9
$VERSIONGUID
  2
{FAEB1C32-E019-11D5-929B-00C0DF256EC4}
  9
$EXTNAMES
290
     1
  9
$PSVPSCALE
 40
0.0
  9
$OLESTARTUP
290
     0
  0
ENDSEC
  0
SECTION
  2
CLASSES
  0
CLASS
  1
ACDBDICTIONARYWDFLT
  2
AcDbDictionaryWithDefault
  3
ObjectDBX Classes
 90
        0
280
     0
281
     0
  0
CLASS
  1
VISUALSTYLE
  2
AcDbVisualStyle
  3
ObjectDBX Classes
 90
     4095
280
     0
281
     0
  0
CLASS
  1
MATERIAL
  2
AcDbMaterial
  3
ObjectDBX Classes
 90
     1153
280
     0
281
     0
  0
CLASS
  1
SCALE
  2
AcDbScale
  3
ObjectDBX Classes
 90
     1153
280
     0
281
     0
  0
CLASS
  1
TABLESTYLE
  2
AcDbTableStyle
  3
ObjectDBX Classes
 90
     4095
280
     0
281
     0
  0
CLASS
  1
MLEADERSTYLE
  2
AcDbMLeaderStyle
  3
ACDB_MLEADERSTYLE_CLASS
 90
     4095
280
     0
281
     0
  0
CLASS
  1
SUN
  2
AcDbSun
  3
SCENEOE
 90
     1153
280
     0
281
     0
  0
CLASS
  1
ACDBPLACEHOLDER
  2
AcDbPlaceHolder
  3
ObjectDBX Classes
 90
        0
280
     0
281
     0
  0
CLASS
  1
LAYOUT
  2
AcDbLayout
  3
ObjectDBX Classes
 90
        0
280
     0
281
     0
  0
ENDSEC
  0
SECTION
  2
TABLES
  0
TABLE
  2
VPORT
  5
8
330
0
100
AcDbSymbolTable
 70
     1
  0
VPORT
  5
29
330
8
100
AcDbSymbolTableRecord
100
AcDbViewportTableRecord
  2
*Active
 70
     0
 10
0.0
 20
0.0
 11
1.0
 21
1.0
 12
-0.0000893018
 22
-418.1636699997
 13
0.0
 23
0.0
 14
10.0
 24
10.0
 15
10.0
 25
10.0
 16
0.0
 26
0.0
 36
1.0
 17
0.0
 27
0.0
 37
0.0
 40
869.3024867993
 41
2.0205458685
 42
50.0
 43
0.0
 44
0.0
 50
0.0
 51
0.0
 71
     0
 72
   100
 73
     1
 74
     3
 75
     0
 76
     0
 77
     0
 78
     0
281
     0
 65
     1
110
0.0
120
0.0
130
0.0
111
1.0
121
0.0
131
0.0
112
0.0
122
1.0
132
0.0
 79
     0
146
0.0
  0
ENDTAB
  0
TABLE
  2
LTYPE
  5
5
330
0
100
AcDbSymbolTable
 70
     6
  0
LTYPE
  5
14
330
5
100
AcDbSymbolTableRecord
100
AcDbLinetypeTableRecord
  2
ByBlock
 70
     0
  3

 72
    65
 73
     0
 40
0.0
  0
LTYPE
  5
15
330
5
100
AcDbSymbolTableRecord
100
AcDbLinetypeTableRecord
  2
ByLayer
 70
     0
  3

 72
    65
 73
     0
 40
0.0
  0
LTYPE
  5
16
330
5
100
AcDbSymbolTableRecord
100
AcDbLinetypeTableRecord
  2
Continuous
 70
     0
  3
Solid line
 72
    65
 73
     0
 40
0.0
  0
LTYPE
  5
6E
330
5
100
AcDbSymbolTableRecord
100
AcDbLinetypeTableRecord
  2
HIDDEN
 70
     0
  3
Hidden __ __ __ __ __ __ __ __ __ __ __ __ __ __
 72
    65
 73
     2
 40
1.905
 49
1.27
 74
     0
 49
-0.635
 74
     0
  0
LTYPE
  5
6F
330
5
100
AcDbSymbolTableRecord
100
AcDbLinetypeTableRecord
  2
PHANTOM
 70
     0
  3
Phantom ______  __  __  ______  __  __  ______
 72
    65
 73
     6
 40
12.7
 49
6.35
 74
     0
 49
-1.27
 74
     0
 49
1.27
 74
     0
 49
-1.27
 74
     0
 49
1.27
 74
     0
 49
-1.27
 74
     0
  0
LTYPE
  5
70
330
5
100
AcDbSymbolTableRecord
100
AcDbLinetypeTableRecord
  2
CENTER
 70
     0
  3
Center ____ _ ____ _ ____ _ ____ _ ____ _ ____
 72
    65
 73
     4
 40
10.16
 49
6.35
 74
     0
 49
-1.27
 74
     0
 49
1.27
 74
     0
 49
-1.27
 74
     0
  0
LTYPE
  5
71
330
5
100
AcDbSymbolTableRecord
100
AcDbLinetypeTableRecord
  2
CENTERX2
 70
     0
  3
Center (2x) ________  __  ________  __  _____
 72
    65
 73
     4
 40
20.32
 49
12.7
 74
     0
 49
-2.54
 74
     0
 49
2.54
 74
     0
 49
-2.54
 74
     0
  0
LTYPE
  5
72
330
5
100
AcDbSymbolTableRecord
100
AcDbLinetypeTableRecord
  2
DOT2
 70
     0
  3
Dot (.5x) ........................................
 72
    65
 73
     2
 40
0.635
 49
0.0
 74
     0
 49
-0.635
 74
     0
  0
ENDTAB
  0
TABLE
  2
LAYER
  5
2
330
0
100
AcDbSymbolTable
 70
     1
  0
LAYER
  5
10
330
2
100
AcDbSymbolTableRecord
100
AcDbLayerTableRecord
  2
0
 70
     0
 62
     7
  6
Continuous
370
    -3
390
F
  0
ENDTAB
  0
TABLE
  2
STYLE
  5
3
330
0
100
AcDbSymbolTable
 70
     1
  0
STYLE
  5
11
330
3
100
AcDbSymbolTableRecord
100
AcDbTextStyleTableRecord
  2
Standard
 70
     0
 40
0.0
 41
1.0
 50
0.0
 71
     0
 42
3.175
  3
txt
  4

  0
ENDTAB
  0
TABLE
  2
VIEW
  5
6
330
0
100
AcDbSymbolTable
 70
     0
  0
ENDTAB
  0
TABLE
  2
UCS
  5
7
330
0
100
AcDbSymbolTable
 70
     0
  0
ENDTAB
  0
TABLE
  2
APPID
  5
9
330
0
100
AcDbSymbolTable
 70
     1
  0
APPID
  5
12
330
9
100
AcDbSymbolTableRecord
100
AcDbRegAppTableRecord
  2
ACAD
 70
     0
  0
ENDTAB
  0
TABLE
  2
DIMSTYLE
  5
A
330
0
100
AcDbSymbolTable
 70
     1
100
AcDbDimStyleTable
  0
DIMSTYLE
105
27
330
A
100
AcDbSymbolTableRecord
100
AcDbDimStyleTableRecord
  2
ISO-25
 70
     0
 41
2.5
 42
0.625
 43
3.75
 44
1.25
 73
     0
 74
     0
 77
     1
 78
     8
140
2.5
141
2.5
143
0.0393700787
147
0.625
171
     3
172
     1
178
     0
271
     2
272
     2
274
     3
278
    44
283
     0
284
     8
340
11
  0
ENDTAB
  0
TABLE
  2
BLOCK_RECORD
  5
1
330
0
100
AcDbSymbolTable
 70
     1
  0
BLOCK_RECORD
  5
1F
330
1
100
AcDbSymbolTableRecord
100
AcDbBlockTableRecord
  2
*Model_Space
340
22
  0
BLOCK_RECORD
  5
1B
330
1
100
AcDbSymbolTableRecord
100
AcDbBlockTableRecord
  2
*Paper_Space
340
1E
  0
BLOCK_RECORD
  5
23
330
1
100
AcDbSymbolTableRecord
100
AcDbBlockTableRecord
  2
*Paper_Space0
340
26
  0
ENDTAB
  0
ENDSEC
  0
SECTION
  2
BLOCKS
  0
BLOCK
  5
20
330
1F
100
AcDbEntity
  8
0
100
AcDbBlockBegin
  2
*Model_Space
 70
     0
 10
0.0
 20
0.0
 30
0.0
  3
*Model_Space
  1

  0
ENDBLK
  5
21
330
1F
100
AcDbEntity
  8
0
100
AcDbBlockEnd
  0
BLOCK
  5
1C
330
1B
100
AcDbEntity
 67
     1
  8
0
100
AcDbBlockBegin
  2
*Paper_Space
 70
     0
 10
0.0
 20
0.0
 30
0.0
  3
*Paper_Space
  1

  0
ENDBLK
  5
1D
330
1B
100
AcDbEntity
 67
     1
  8
0
100
AcDbBlockEnd
  0
BLOCK
  5
24
330
23
100
AcDbEntity
  8
0
100
AcDbBlockBegin
  2
*Paper_Space0
 70
     0
 10
0.0
 20
0.0
 30
0.0
  3
*Paper_Space0
  1

  0
ENDBLK
  5
25
330
23
100
AcDbEntity
  8
0
100
AcDbBlockEnd
  0
ENDSEC
  0
SECTION
  2
ENTITIES
  0
SPLINE
  5
83
330
1F
100
AcDbEntity
  8
0
  6
Continuous
 62
     7
370
    25
100
AcDbSpline
210
0.0
220
0.0
230
1.0
 70
     8
 71
     3
 72
     9
 73
     5
 74
     0
 42
0.00000001
 43
0.00000001
 40
0.0
 40
0.0
 40
0.0
 40
0.0
 40
0.4739638087899843
 40
1.0
 40
1.0
 40
1.0
 40
1.0
 10
-860.3870144369638
 20
-3.411617090169961
 30
0.0
 10
-860.1158136492988
 20
-3.618185445224131
 30
0.0
 10
-859.543616399983
 20
-4.054016939577076
 30
0.0
 10
-859.0066859271337
 20
-4.464750280903152
 30
0.0
 10
-858.7242410662517
 20
-4.680810883377296
 30
0.0
  0
SPLINE
  5
84
330
1F
100
AcDbEntity
  8
0
  6
Continuous
 62
     7
370
    25
100
AcDbSpline
210
0.0
220
0.0
230
1.0
 70
     8
 71
     3
 72
     9
 73
     5
 74
     0
 42
0.00000001
 43
0.00000001
 40
0.0
 40
0.0
 40
0.0
 40
0.0
 40
0.5268990938676703
 40
1.0
 40
1.0
 40
1.0
 40
1.0
 10
858.7242471224315
 20
-4.680806236289858
 30
0.0
 10
859.0066860655775
 20
-4.464749883246077
 30
0.0
 10
859.5427259761277
 20
-4.054697264901486
 30
0.0
 10
860.1139746674902
 20
-3.619587750718412
 30
0.0
 10
860.384232941001
 20
-3.413737045291576
 30
0.0
  0
SPLINE
  5
85
330
1F
100
AcDbEntity
  8
0
  6
Continuous
 62
     7
370
    25
100
AcDbSpline
210
0.0
220
0.0
230
1.0
 70
     8
 71
     3
 72
    14
 73
    10
 74
     0
 42
0.00000001
 43
0.00000001
 40
0.0
 40
0.0
 40
0.0
 40
0.0
 40
0.2409921481705171
 40
0.4847841772932757
 40
0.6985099244781394
 40
0.7708032881244149
 40
0.8541640652896173
 40
0.9445964836993357
 40
1.0
 40
1.0
 40
1.0
 40
1.0
 10
-860.9614639865953
 20
-2.660020370019389
 30
0.0
 10
-860.957996024332
 20
-2.671185146937705
 30
0.0
 10
-860.9510198085277
 20
-2.693644414735852
 30
0.0
 10
-860.945261412011
 20
-2.737606335083576
 30
0.0
 10
-860.9193195020127
 20
-2.75239592008919
 30
0.0
 10
-860.9301405616163
 20
-2.809883839397509
 30
0.0
 10
-860.8987532369238
 20
-2.789636925269456
 30
0.0
 10
-860.2768789649069
 20
-2.767374634874087
 30
0.0
 10
-859.5504075313647
 20
-2.77834353147377
 30
0.0
 10
-859.2744188184994
 20
-2.782510648739966
 30
0.0
  0
SPLINE
  5
86
330
1F
100
AcDbEntity
  8
0
  6
Continuous
 62
     7
370
    25
100
AcDbSpline
210
0.0
220
0.0
230
1.0
 70
     8
 71
     3
 72
     9
 73
     5
 74
     0
 42
0.00000001
 43
0.00000001
 40
0.0
 40
0.0
 40
0.0
 40
0.0
 40
0.4731009061291044
 40
1.0
 40
1.0
 40
1.0
 40
1.0
 10
-860.3842329410553
 20
-3.413737045299792
 30
0.0
 10
-860.1139746676623
 20
-3.61958775063681
 30
0.0
 10
-859.5427259765438
 20
-4.054697264632978
 30
0.0
 10
-859.0066860662082
 20
-4.464749882812202
 30
0.0
 10
-858.7242471231737
 20
-4.680806235770218
 30
0.0
  0
SPLINE
  5
87
330
1F
100
AcDbEntity
  8
0
  6
Continuous
 62
     7
370
    25
100
AcDbSpline
210
0.0
220
0.0
230
1.0
 70
     8
 71
     3
 72
    19
 73
    15
 74
     0
 42
0.00000001
 43
0.00000001
 40
0.0
 40
0.0
 40
0.0
 40
0.0
 40
0.0115787396662148
 40
0.0222352644778408
 40
0.032180269123878
 40
0.042206932341675
 40
0.0530877766178994
 40
0.0654317237187664
 40
0.0959713906227639
 40
0.1357349729007988
 40
0.2450910467470831
 40
0.452546238871349
 40
0.7227705843327532
 40
1.0
 40
1.0
 40
1.0
 40
1.0
 10
-813.7700237467819
 20
-59.77598606003004
 30
0.0
 10
-813.7684576586933
 20
-59.77719026712897
 30
0.0
 10
-813.7654502171365
 20
-59.77950276953447
 30
0.0
 10
-813.7309879138465
 20
-59.8040923746842
 30
0.0
 10
-813.6715845358168
 20
-59.84623499364366
 30
0.0
 10
-813.5865185842645
 20
-59.90641149988246
 30
0.0
 10
-813.4782091718354
 20
-59.98288482639724
 30
0.0
 10
-813.2905975353186
 20
-60.11513739916613
 30
0.0
 10
-812.9930384642257
 20
-60.32437936365403
 30
0.0
 10
-812.3629598480084
 20
-60.76590820202754
 30
0.0
 10
-811.1601986412135
 20
-61.60311564523974
 30
0.0
 10
-809.259635028272
 20
-62.90547031542032
 30
0.0
 10
-806.8620558911065
 20
-64.5160331805365
 30
0.0
 10
-805.1258157162426
 20
-65.62012812295754
 30
0.0
 10
-804.2465873990544
 20
-66.1792394442452
 30
0.0
  0
SPLINE
  5
88
330
1F
100
AcDbEntity
  8
0
  6
Continuous
 62
     7
370
    25
100
AcDbSpline
210
0.0
220
0.0
230
1.0
 70
     8
 71
     3
 72
     9
 73
     5
 74
     0
 42
0.00000001
 43
0.00000001
 40
0.0
 40
0.0
 40
0.0
 40
0.0
 40
0.939433051848801
 40
1.0
 40
1.0
 40
1.0
 40
1.0
 10
-850.78328573367
 20
-30.10960800558315
 30
0.0
 10
-850.7446170883363
 20
-30.24623661659159
 30
0.0
 10
-850.7034554054922
 20
-30.3916739212931
 30
0.0
 10
-850.6143526545649
 20
-30.50031102051576
 30
0.0
 10
-850.6089559728695
 20
-30.50689083807168
 30
0.0
  0
SPLINE
  5
89
330
1F
100
AcDbEntity
  8
0
  6
Continuous
 62
     7
370
    25
100
AcDbSpline
210
0.0
220
0.0
230
1.0
 70
     8
 71
     3
 72
    24
 73
    20
 74
     0
 42
0.00000001
 43
0.00000001
 40
0.0
 40
0.0
 40
0.0
 40
0.0
 40
0.0012197864268379
 40
0.3485220516732323
 40
0.5471222985162052
 40
0.6015542393600106
 40
0.6297951232331599
 40
0.6330033875942838
 40
0.6347270440629971
 40
0.6349308340336417
 40
0.6350475789711609
 40
0.6350966318372638
 40
0.6351842598303702
 40
0.6356137496487209
 40
0.6363973417140321
 40
0.6430606322322463
 40
0.6552840901265943
 40
0.7578421450926388
 40
1.0
 40
1.0
 40
1.0
 40
1.0
 10
-850.4513420034992
 20
-30.70249815209458
 30
0.0
 10
-850.45129310462
 20
-30.70255886751694
 30
0.0
 10
-850.437321529539
 20
-30.71990671062047
 30
0.0
 10
-850.412393085417
 20
-30.73958683748074
 30
0.0
 10
-850.3872708307333
 20
-30.76423147184942
 30
0.0
 10
-850.3753880842171
 20
-30.77523962242768
 30
0.0
 10
-850.3717779720552
 20
-30.77859096942553
 30
0.0
 10
-850.3703494577009
 20
-30.7799138365919
 30
0.0
 10
-850.370125731021
 20
-30.78012100781569
 30
0.0
 10
-850.3700309094521
 20
-30.78020873518789
 30
0.0
 10
-850.3700127934492
 20
-30.78022550235982
 30
0.0
 10
-850.3699997674044
 20
-30.78023751937176
 30
0.0
 10
-850.3700228765814
 20
-30.78021608480069
 30
0.0
 10
-850.3700627612318
 20
-30.7801791157627
 30
0.0
 10
-850.370377911133
 20
-30.77988711571838
 30
0.0
 10
-850.3711598924475
 20
-30.77916268862513
 30
0.0
 10
-850.376143594368
 20
-30.77453972400745
 30
0.0
 10
-850.3909033965224
 20
-30.76092666810837
 30
0.0
 10
-850.4058007107384
 20
-30.74607896600845
 30
0.0
 10
-850.4162658547921
 20
-30.73564867373635
 30
0.0
  0
SPLINE
  5
8A
330
1F
100
AcDbEntity
  8
0
  6
Continuous
 62
     7
370
    25
100
AcDbSpline
210
0.0
220
0.0
230
1.0
 70
     8
 71
     3
 72
    10
 73
     6
 74
     0
 42
0.00000001
 43
0.00000001
 40
0.0
 40
0.0
 40
0.0
 40
0.0
 40
0.0964652951823179
 40
0.5154697656951858
 40
1.0
 40
1.0
 40
1.0
 40
1.0
 10
-850.459031394279
 20
-30.69374537077518
 30
0.0
 10
-850.4693682578561
 20
-30.68381014119853
 30
0.0
 10
-850.5246040878617
 20
-30.63072047353793
 30
0.0
 10
-850.6277532635893
 20
-30.49954400557775
 30
0.0
 10
-850.6892165436213
 20
-30.36307647740832
 30
0.0
 10
-850.722176890707
 20
-30.28989429298706
 30
0.0
  0
SPLINE
  5
8B
330
1F
100
AcDbEntity
  8
0
  6
Continuous
 62
     7
370
    25
100
AcDbSpline
210
0.0
220
0.0
230
1.0
 70
     8
 71
     3
 72
     9
 73
     5
 74
     0
 42
0.00000001
 43
0.00000001
 40
0.0
 40
0.0
 40
0.0
 40
0.0
 40
0.4999391804434348
 40
1.0
 40
1.0
 40
1.0
 40
1.0
 10
-804.2498177371347
 20
-66.18712541242766
 30
0.0
 10
-804.1193205711726
 20
-66.26411785510766
 30
0.0
 10
-803.8582944882676
 20
-66.4181214733312
 30
0.0
 10
-803.5542115924346
 20
-66.4243735705507
 30
0.0
 10
-803.4021516503313
 20
-66.42749999941017
 30
0.0
  0
SPLINE
  5
8C
330
1F
100
AcDbEntity
  8
0
  6
Continuous
 62
     7
370
    25
100
AcDbSpline
210
0.0
220
0.0
230
1.0
 70
     8
 71
     3
 72
    14
 73
    10
 74
     0
 42
0.00000001
 43
0.00000001
 40
0.0
 40
0.0
 40
0.0
 40
0.0
 40
0.0554035913036244
 40
0.1458360063202448
 40
0.2291967611621118
 40
0.3014901176203184
 40
0.5152158529845918
 40
0.759007868488719
 40
1.0
 40
1.0
 40
1.0
 40
1.0
 10
859.2744190652793
 20
-2.78251065857732
 30
0.0
 10
859.5504080810472
 20
-2.778343536756933
 30
0.0
 10
860.2768796851582
 20
-2.767374637632491
 30
0.0
 10
860.898753491089
 20
-2.789636989614097
 30
0.0
 10
860.9301404969688
 20
-2.809883816977665
 30
0.0
 10
860.919319561055
 20
-2.752395922422712
 30
0.0
 10
860.9452613885584
 20
-2.737606328570896
 30
0.0
 10
860.9510198160111
 20
-2.693644411607632
 30
0.0
 10
860.9579960274768
 20
-2.671185143143462
 30
0.0
 10
860.9614639875604
 20
-2.660020365968574
 30
0.0
  0
SPLINE
  5
8D
330
1F
100
AcDbEntity
  8
0
  6
Continuous
 62
     7
370
    25
100
AcDbSpline
210
0.0
220
0.0
230
1.0
 70
     8
 71
     3
 72
     9
 73
     5
 74
     0
 42
0.00000001
 43
0.00000001
 40
0.0
 40
0.0
 40
0.0
 40
0.0
 40
0.5260361912104833
 40
1.0
 40
1.0
 40
1.0
 40
1.0
 10
858.7242410660787
 20
-4.680810883460396
 30
0.0
 10
859.0066859269762
 20
-4.46475028097415
 30
0.0
 10
859.5436163998546
 20
-4.054016939625371
 30
0.0
 10
860.1158136492047
 20
-3.61818544524678
 30
0.0
 10
860.3870144368856
 20
-3.411617090180674
 30
0.0
  0
SPLINE
  5
8E
330
1F
100
AcDbEntity
  8
0
  6
Continuous
 62
     7
370
    25
100
AcDbSpline
210
0.0
220
0.0
230
1.0
 70
     8
 71
     3
 72
    19
 73
    15
 74
     0
 42
0.00000001
 43
0.00000001
 40
0.0
 40
0.0
 40
0.0
 40
0.0
 40
0.2542268542955313
 40
0.500590733866277
 40
0.6926753354887676
 40
0.7981396254648249
 40
0.8386844225320514
 40
0.8718757430338151
 40
0.8992405978883737
 40
0.9116305883325081
 40
0.923749267970638
 40
0.9491255532973363
 40
0.9791411258567486
 40
1.0
 40
1.0
 40
1.0
 40
1.0
 10
804.2470828173977
 20
-66.17951243577774
 30
0.0
 10
805.066858357133
 20
-65.65943938083096
 30
0.0
 10
806.6810546236085
 20
-64.63537859480067
 30
0.0
 10
808.986576180283
 20
-63.09395953457925
 30
0.0
 10
810.8722230486644
 20
-61.80577651842795
 30
0.0
 10
812.1246103157629
 20
-60.93575682157781
 30
0.0
 10
812.8266216626847
 20
-60.44434435771917
 30
0.0
 10
813.23389948121
 20
-60.15810774125546
 30
0.0
 10
813.526302764749
 20
-59.95188059818052
 30
0.0
 10
813.7099772661163
 20
-59.82201602875126
 30
0.0
 10
813.8634050132147
 20
-59.71335365248353
 30
0.0
 10
814.0011020955912
 20
-59.61547553346919
 30
0.0
 10
814.076933459901
 20
-59.56119164131335
 30
0.0
 10
814.0519562136722
 20
-59.57840375749296
 30
0.0
 10
814.0417153703943
 20
-59.58546084387722
 30
0.0
  0
SPLINE
  5
8F
330
1F
100
AcDbEntity
  8
0
  6
Continuous
 62
     7
370
    25
100
AcDbSpline
210
0.0
220
0.0
230
1.0
 70
     8
 71
     3
 72
    10
 73
     6
 74
     0
 42
0.00000001
 43
0.00000001
 40
0.0
 40
0.0
 40
0.0
 40
0.0
 40
0.1878913873495752
 40
0.5753406230859347
 40
1.0
 40
1.0
 40
1.0
 40
1.0
 10
850.5241024339623
 20
-30.62599420995854
 30
0.0
 10
850.528882132169
 20
-30.62036308085298
 30
0.0
 10
850.5435180054951
 20
-30.60312004819487
 30
0.0
 10
850.5673456131219
 20
-30.57447582692879
 30
0.0
 10
850.5825528715343
 20
-30.54829454082392
 30
0.0
 10
850.5905048927063
 20
-30.53460409539471
 30
0.0
  0
SPLINE
  5
91
330
1F
100
AcDbEntity
  8
0
  6
Continuous
 62
     7
370
    25
100
AcDbSpline
210
0.0
220
0.0
230
1.0
 70
     8
 71
     3
 72
     9
 73
     5
 74
     0
 42
0.00000001
 43
0.00000001
 40
0.0
 40
0.0
 40
0.0
 40
0.0
 40
0.5000608195566775
 40
0.9999999999999999
 40
0.9999999999999999
 40
0.9999999999999999
 40
0.9999999999999999
 10
803.4021516502656
 20
-66.42749999941134
 30
0.0
 10
803.5542115923694
 20
-66.42437357055186
 30
0.0
 10
803.8582944882027
 20
-66.41812147333242
 30
0.0
 10
804.1193205711093
 20
-66.26411785510838
 30
0.0
 10
804.2498177370719
 20
-66.18712541242816
 30
0.0
  0
SPLINE
  5
A6
330
1F
100
AcDbEntity
  8
0
  6
Continuous
 62
     7
370
    25
100
AcDbSpline
210
0.0
220
0.0
230
1.0
 70
    24
 71
     3
 72
    22
 73
    18
 74
     0
 42
0.00000001
 43
0.00000001
 40
0.0
 40
0.0
 40
0.0
 40
0.0
 40
0.125
 40
0.125
 40
0.2500000000000001
 40
0.2500000000000001
 40
0.3750000000000001
 40
0.3750000000000001
 40
0.5000000000000001
 40
0.5000000000000001
 40
0.6250000000000001
 40
0.6250000000000001
 40
0.7500000000000002
 40
0.7500000000000002
 40
0.8750000000000001
 40
0.8750000000000001
 40
1.0
 40
1.0
 40
1.0
 40
1.0
 10
355.6000000000392
 20
-826.9695399993544
 30
0.0
 10
327.748580162778
 20
-826.9695399993548
 30
0.0
 10
299.236369135233
 20
-826.9695399993549
 30
0.0
 10
241.2074636759563
 20
-826.9695399993553
 30
0.0
 10
211.690889205431
 20
-826.9695399993554
 30
0.0
 10
151.9817658018666
 20
-826.9695399993559
 30
0.0
 10
121.7893403034912
 20
-826.9695399993561
 30
0.0
 10
61.0645472200104
 20
-826.9695399993565
 30
0.0
 10
30.53230516922921
 20
-826.9695399993567
 30
0.0
 10
-30.53230516915082
 20
-826.9695399993572
 30
0.0
 10
-61.06454721993276
 20
-826.9695399993575
 30
0.0
 10
-121.7893403034136
 20
-826.9695399993581
 30
0.0
 10
-151.9817658017888
 20
-826.9695399993578
 30
0.0
 10
-211.6908892053532
 20
-826.9695399993585
 30
0.0
 10
-241.2074636758779
 20
-826.9695399993589
 30
0.0
 10
-299.2363691351543
 20
-826.9695399993592
 30
0.0
 10
-327.7485801627
 20
-826.9695399993594
 30
0.0
 10
-355.5999999999611
 20
-826.9695399993594
 30
0.0
  0
SPLINE
  5
CE
330
1F
100
AcDbEntity
  8
0
  6
Continuous
 62
     7
370
    25
100
AcDbSpline
210
0.0
220
0.0
230
1.0
 70
     8
 71
     3
 72
    26
 73
    22
 74
     0
 42
0.00000001
 43
0.00000001
 40
0.0
 40
0.0
 40
0.0
 40
0.0
 40
0.0224332283545172
 40
0.0454355808879927
 40
0.0690077305549842
 40
0.0931503026621986
 40
0.1178638792176377
 40
0.1431490027995243
 40
0.1690061800066628
 40
0.1954358845428804
 40
0.2224385599807434
 40
0.2500146222433946
 40
0.3729316841670194
 40
0.5000109785492501
 40
0.6265733272071268
 40
0.7500162729195278
 40
0.8038994317297312
 40
0.8558360882067704
 40
0.9058293435947233
 40
0.9538826754061452
 40
1.0
 40
1.0
 40
1.0
 40
1.0
 10
-850.3377354975661
 20
-30.80981970873198
 30
0.0
 10
-850.0076606495076
 20
-31.10983962826563
 30
0.0
 10
-849.3391370549072
 20
-31.71749088142267
 30
0.0
 10
-848.3191545628744
 20
-32.63015031138228
 30
0.0
 10
-847.2707211009706
 20
-33.55824270716207
 30
0.0
 10
-846.1934758139525
 20
-34.50097722779761
 30
0.0
 10
-845.0875186500774
 20
-35.45857342916964
 30
0.0
 10
-843.9528215928174
 20
-36.43097018947272
 30
0.0
 10
-842.789392087798
 20
-37.41818424523957
 30
0.0
 10
-841.5972281028129
 20
-38.4202109906534
 30
0.0
 10
-840.3763289653702
 20
-39.43705080014303
 30
0.0
 10
-837.6952223123576
 20
-41.65048811619082
 30
0.0
 10
-833.4780566818332
 20
-45.05278613367181
 30
0.0
 10
-827.7088473194957
 20
-49.5466780779088
 30
0.0
 10
-821.8882969299289
 20
-53.93386773329406
 30
0.0
 10
-817.1614440834751
 20
-57.37202808818054
 30
0.0
 10
-813.5751681807686
 20
-59.90913793427194
 30
0.0
 10
-811.1289070731713
 20
-61.60798334872214
 30
0.0
 10
-808.7647653418296
 20
-63.21585152582354
 30
0.0
 10
-806.4837699651893
 20
-64.73596066279936
 30
0.0
 10
-804.9853696040923
 20
-65.70320269970514
 30
0.0
 10
-804.2515718536882
 20
-66.17688119659104
 30
0.0
  0
SPLINE
  5
CF
330
1F
100
AcDbEntity
  8
0
  6
Continuous
 62
     7
370
    25
100
AcDbSpline
210
0.0
220
0.0
230
1.0
 70
     8
 71
     3
 72
     9
 73
     5
 74
     0
 42
0.00000001
 43
0.00000001
 40
0.0
 40
0.0
 40
0.0
 40
0.0
 40
0.0442810330627991
 40
1.0
 40
1.0
 40
1.0
 40
1.0
 10
-850.5936714218473
 20
-30.53054664630844
 30
0.0
 10
-850.5978298365798
 20
-30.52608202504459
 30
0.0
 10
-850.6917394508026
 20
-30.42525733882834
 30
0.0
 10
-850.738417183874
 20
-30.26432505447801
 30
0.0
 10
-850.783027978704
 20
-30.11051901793188
 30
0.0
  0
SPLINE
  5
D0
330
1F
100
AcDbEntity
  8
0
  6
Continuous
 62
     7
370
    25
100
AcDbSpline
210
0.0
220
0.0
230
1.0
 70
     8
 71
     3
 72
    20
 73
    16
 74
     0
 42
0.00000001
 43
0.00000001
 40
0.0
 40
0.0
 40
0.0
 40
0.0
 40
0.0426565652732337
 40
0.0849204937485232
 40
0.1267951779910959
 40
0.1682841060522283
 40
0.2093908641815719
 40
0.2501191395826136
 40
0.3755372072835152
 40
0.500216414831929
 40
0.6241269225487313
 40
0.7501287784447461
 40
0.8314332424388686
 40
0.9147157550261366
 40
1.0
 40
1.0
 40
1.0
 40
1.0
 10
-855.8164969303949
 20
-7.492491955586711
 30
0.0
 10
-855.7708821209849
 20
-7.824197537883992
 30
0.0
 10
-855.6800723684286
 20
-8.484555483897594
 30
0.0
 10
-855.5366821591186
 20
-9.4683428385135
 30
0.0
 10
-855.3888140377494
 20
-10.44133533185726
 30
0.0
 10
-855.2359227685827
 20
-11.4033844043655
 30
0.0
 10
-855.0781512101872
 20
-12.35453145004767
 30
0.0
 10
-854.8022086674326
 20
-13.94931862299287
 30
0.0
 10
-854.3834061755664
 20
-16.17616663131455
 30
0.0
 10
-853.7830310171335
 20
-19.01521376191601
 30
0.0
 10
-853.1196885871674
 20
-21.83094735967528
 30
0.0
 10
-852.4813729494895
 20
-24.29504683636263
 30
0.0
 10
-851.8854133765976
 20
-26.43729741677098
 30
0.0
 10
-851.3519409945712
 20
-28.26747122248901
 30
0.0
 10
-850.9741610312803
 20
-29.49132532511428
 30
0.0
 10
-850.7830279787045
 20
-30.11051901793182
 30
0.0
  0
SPLINE
  5
D1
330
1F
100
AcDbEntity
  8
0
  6
Continuous
 62
     7
370
    25
100
AcDbSpline
210
0.0
220
0.0
230
1.0
 70
     8
 71
     3
 72
    15
 73
    11
 74
     0
 42
0.00000001
 43
0.00000001
 40
0.0
 40
0.0
 40
0.0
 40
0.0
 40
0.1094109937568982
 40
0.2152223691716736
 40
0.3160239891827699
 40
0.4102333848907057
 40
0.4980190956707127
 40
0.607121358804084
 40
0.7762479174811263
 40
1.0
 40
1.0
 40
1.0
 40
1.0
 10
-855.816496930395
 20
-7.492491955586211
 30
0.0
 10
-855.8234022632868
 20
-7.441816132922218
 30
0.0
 10
-855.8369857438294
 20
-7.342131720607048
 30
0.0
 10
-855.8657900021449
 20
-7.198880697341703
 30
0.0
 10
-855.9051804458993
 20
-7.067477350483575
 30
0.0
 10
-855.9543594098043
 20
-6.951692223884754
 30
0.0
 10
-856.0163282309622
 20
-6.843279479699427
 30
0.0
 10
-856.1036065262535
 20
-6.726163142039388
 30
0.0
 10
-856.2410551583076
 20
-6.586847553552766
 30
0.0
 10
-856.3570902475947
 20
-6.497414822400072
 30
0.0
 10
-856.4231745040311
 20
-6.446481130052084
 30
0.0
  0
SPLINE
  5
D4
330
1F
100
AcDbEntity
  8
0
  6
Continuous
 62
     7
370
    25
100
AcDbSpline
210
0.0
220
0.0
230
1.0
 70
     8
 71
     3
 72
     9
 73
     5
 74
     0
 42
0.00000001
 43
0.00000001
 40
0.0
 40
0.0
 40
0.0
 40
0.0
 40
0.2474002818585353
 40
1.0
 40
1.0
 40
1.0
 40
1.0
 10
-860.9528776491386
 20
-2.676787585890683
 30
0.0
 10
-860.9644313692002
 20
-2.634385384183591
 30
0.0
 10
-861.0111318821289
 20
-2.462994303346511
 30
0.0
 10
-861.0088093041853
 20
-2.277061471001207
 30
0.0
 10
-861.00706133268
 20
-2.137128473784833
 30
0.0
  0
SPLINE
  5
D7
330
1F
100
AcDbEntity
  8
0
  6
Continuous
 62
     7
370
    25
100
AcDbSpline
210
0.0
220
0.0
230
1.0
 70
     8
 71
     3
 72
    15
 73
    11
 74
     0
 42
0.00000001
 43
0.00000001
 40
0.0
 40
0.0
 40
0.0
 40
0.0
 40
0.0961542949616053
 40
0.1840800138342125
 40
0.2633223699528751
 40
0.3334183831093539
 40
0.4945846150023783
 40
0.6666751328079796
 40
0.8084115406198842
 40
1.0
 40
1.0
 40
1.0
 40
1.0
 10
-860.338833816045
 20
6.005707661138504
 30
0.0
 10
-860.3276690754795
 20
6.072903052654677
 30
0.0
 10
-860.3062950370286
 20
6.201543469651405
 30
0.0
 10
-860.2656611225729
 20
6.381746352373597
 30
0.0
 10
-860.2169663321042
 20
6.538790311782172
 30
0.0
 10
-860.1373468697411
 20
6.732870101501809
 30
0.0
 10
-860.000482497876
 20
6.953866088160066
 30
0.0
 10
-859.790266114287
 20
7.132593886950533
 30
0.0
 10
-859.5471035370357
 20
7.250245724238436
 30
0.0
 10
-859.3786108436134
 20
7.285400153654365
 30
0.0
 10
-859.2817646172232
 20
7.305606215773086
 30
0.0
  0
SPLINE
  5
DB
330
1F
100
AcDbEntity
  8
0
  6
Continuous
 62
     7
370
    25
100
AcDbSpline
210
0.0
220
0.0
230
1.0
 70
    24
 71
     3
 72
    26
 73
    22
 74
     0
 42
0.00000001
 43
0.00000001
 40
0.0
 40
0.0
 40
0.0
 40
0.0
 40
0.2500000000005344
 40
0.2500000000005344
 40
0.257812500000532
 40
0.257812500000532
 40
0.2656250000005296
 40
0.281250000000525
 40
0.3125000000005156
 40
0.3750000000004978
 40
0.5000000000004613
 40
0.5000000000004613
 40
0.7500000000004406
 40
0.7500000000004406
 40
0.7578125000004697
 40
0.7578125000004697
 40
0.7656250000004987
 40
0.7812500000004519
 40
0.8125000000003579
 40
0.8750000000002671
 40
1.0
 40
1.0
 40
1.0
 40
1.0
 10
-708.609200000058
 20
-2.137128473783778
 30
0.0
 10
-708.6092000000583
 20
-2.295616593772309
 30
0.0
 10
-708.609200000058
 20
-2.419151708380751
 30
0.0
 10
-708.6092000000581
 20
-2.510502008522431
 30
0.0
 10
-708.6092000000582
 20
-2.516023001489343
 30
0.0
 10
-708.6092000000581
 20
-2.524271118217902
 30
0.0
 10
-708.6092000000582
 20
-2.536602226159146
 30
0.0
 10
-708.6092000000579
 20
-2.565087341293459
 30
0.0
 10
-708.609200000058
 20
-2.620907691314678
 30
0.0
 10
-708.609200000058
 20
-2.727948870367536
 30
0.0
 10
-708.6092000000581
 20
-2.811813559287835
 30
0.0
 10
-708.6092000000581
 20
-2.969029746295149
 30
0.0
 10
-708.6092000000581
 20
-3.068710737488822
 30
0.0
 10
-708.609200000058
 20
-3.167872351329981
 30
0.0
 10
-708.6092000000581
 20
-3.168846158805139
 30
0.0
 10
-708.6092000000579
 20
-3.172874323702557
 30
0.0
 10
-708.6092000000577
 20
-3.178966031081865
 30
0.0
 10
-708.609200000058
 20
-3.193526235198862
 30
0.0
 10
-708.6092000000577
 20
-3.224031524360627
 30
0.0
 10
-708.609200000058
 20
-3.290581626395339
 30
0.0
 10
-708.6092000000579
 20
-3.357120897358679
 30
0.0
 10
-708.609200000058
 20
-3.405701000828487
 30
0.0
  0
SPLINE
  5
DD
330
1F
100
AcDbEntity
  8
0
  6
Continuous
 62
     7
370
    25
100
AcDbSpline
210
0.0
220
0.0
230
1.0
 70
     8
 71
     3
 72
    14
 73
    10
 74
     0
 42
0.00000001
 43
0.00000001
 40
0.0
 40
0.0
 40
0.0
 40
0.0
 40
0.2504326941467418
 40
0.3834496722272932
 40
0.5005854303649899
 40
0.6240763489449429
 40
0.7507302989244471
 40
0.8572080015268445
 40
0.9999999999999999
 40
0.9999999999999999
 40
0.9999999999999999
 40
0.9999999999999999
 10
-837.9353560189929
 20
-3.405701000828487
 30
0.0
 10
-838.0214407560495
 20
-3.339256188038264
 30
0.0
 10
-838.1532492817718
 20
-3.237519305110736
 30
0.0
 10
-838.3093442325962
 20
-3.069317544362626
 30
0.0
 10
-838.412529316049
 20
-2.921677163032599
 30
0.0
 10
-838.490138310041
 20
-2.748744066863873
 30
0.0
 10
-838.5368520738789
 20
-2.560972100659809
 30
0.0
 10
-838.5555154360992
 20
-2.353980303813175
 30
0.0
 10
-838.5560912054824
 20
-2.216107640119314
 30
0.0
 10
-838.5564210300081
 20
-2.137128473783723
 30
0.0
  0
SPLINE
  5
E3
330
1F
100
AcDbEntity
  8
0
  6
Continuous
 62
     7
370
    25
100
AcDbSpline
210
0.0
220
0.0
230
1.0
 70
     8
 71
     3
 72
    15
 73
    11
 74
     0
 42
0.00000001
 43
0.00000001
 40
0.0
 40
0.0
 40
0.0
 40
0.0
 40
0.0896272070364912
 40
0.1729901928392347
 40
0.2501070416787235
 40
0.3774749448297478
 40
0.5000129349410094
 40
0.7500407096032421
 40
0.8672365800411294
 40
1.0
 40
1.0
 40
1.0
 40
1.0
 10
837.88819351331
 20
6.005707661138615
 30
0.0
 10
837.9270579605204
 20
5.766410269682498
 30
0.0
 10
838.0020705425233
 20
5.304540450654594
 30
0.0
 10
838.1026657961565
 20
4.634294260025706
 30
0.0
 10
838.2102877510332
 20
3.860563290736529
 30
0.0
 10
838.3164118003933
 20
2.977185437372243
 30
0.0
 10
838.4446979181453
 20
1.619431422173745
 30
0.0
 10
838.5143936059347
 20
0.2801637719277439
 30
0.0
 10
838.5474529048856
 20
-1.088733552801147
 30
0.0
 10
838.5533100597272
 20
-1.773448735395977
 30
0.0
 10
838.5564210299448
 20
-2.137128473783612
 30
0.0
  0
SPLINE
  5
E4
330
1F
100
AcDbEntity
  8
0
  6
Continuous
 62
     7
370
    25
100
AcDbSpline
210
0.0
220
0.0
230
1.0
 70
     8
 71
     3
 72
    17
 73
    13
 74
     0
 42
0.00000001
 43
0.00000001
 40
0.0
 40
0.0
 40
0.0
 40
0.0
 40
0.0883723212291264
 40
0.1735840465678437
 40
0.2563828270916495
 40
0.337660651573941
 40
0.4184633028389664
 40
0.4999986308017736
 40
0.6193180359756503
 40
0.7500512546207202
 40
0.8661832697751288
 40
1.0
 40
1.0
 40
1.0
 40
1.0
 10
-837.8881935133725
 20
6.005707661143111
 30
0.0
 10
-837.9265265703883
 20
5.769757919038277
 30
0.0
 10
-838.0018217200636
 20
5.306297070080735
 30
0.0
 10
-838.1048468876585
 20
4.619199285950282
 30
0.0
 10
-838.1974628209399
 20
3.948921662229488
 30
0.0
 10
-838.2791527751851
 20
3.288031983922135
 30
0.0
 10
-838.3499964255537
 20
2.628122090794494
 30
0.0
 10
-838.4185613632623
 20
1.862544083133855
 30
0.0
 10
-838.4793761012932
 20
0.9580342898987126
 30
0.0
 10
-838.5220640740546
 20
-0.043487252176122
 30
0.0
 10
-838.5475314581583
 20
-1.085841866695303
 30
0.0
 10
-838.5533212893765
 20
-1.770551110178264
 30
0.0
 10
-838.5564210300095
 20
-2.137128473783778
 30
0.0
  0
SPLINE
  5
E6
330
1F
100
AcDbEntity
  8
0
  6
Continuous
 62
     7
370
    25
100
AcDbSpline
210
0.0
220
0.0
230
1.0
 70
    24
 71
     3
 72
    14
 73
    10
 74
     0
 42
0.00000001
 43
0.00000001
 40
0.0
 40
0.0
 40
0.0
 40
0.0
 40
0.25
 40
0.25
 40
0.5
 40
0.5
 40
0.75
 40
0.75
 40
1.0
 40
1.0
 40
1.0
 40
1.0
 10
708.6092000000016
 20
-2.137128473783667
 30
0.0
 10
708.6092000000017
 20
-2.256859490538221
 30
0.0
 10
708.6092000000116
 20
-2.379426344711499
 30
0.0
 10
708.6092000000083
 20
-2.628718320554946
 30
0.0
 10
708.6091999999765
 20
-2.752473751869156
 30
0.0
 10
708.6091999999251
 20
-2.976795017520295
 30
0.0
 10
708.609199999955
 20
-3.078943370211085
 30
0.0
 10
708.6092000000198
 20
-3.258057223839594
 30
0.0
 10
708.6092000000017
 20
-3.33317374277986
 30
0.0
 10
708.6092000000016
 20
-3.405701000828432
 30
0.0
  0
SPLINE
  5
E7
330
1F
100
AcDbEntity
  8
0
  6
Continuous
 62
     7
370
    25
100
AcDbSpline
210
0.0
220
0.0
230
1.0
 70
     8
 71
     3
 72
    15
 73
    11
 74
     0
 42
0.00000001
 43
0.00000001
 40
0.0
 40
0.0
 40
0.0
 40
0.0
 40
0.167058447721079
 40
0.2577045542782404
 40
0.392177800917801
 40
0.5005797467526388
 40
0.6259826138402
 40
0.7507339689804067
 40
0.8591094905009284
 40
0.9999999999999999
 40
0.9999999999999999
 40
0.9999999999999999
 40
0.9999999999999999
 10
837.9353560189296
 20
-3.405701000828432
 30
0.0
 10
837.9925502028152
 20
-3.361437274459644
 30
0.0
 10
838.0807780168922
 20
-3.29315599907265
 30
0.0
 10
838.2106723920392
 20
-3.17647298191015
 30
0.0
 10
838.3132583503846
 20
-3.063107471274418
 30
0.0
 10
838.4150928199771
 20
-2.916813480648706
 30
0.0
 10
838.4905863954931
 20
-2.748016359781169
 30
0.0
 10
838.5372466110459
 20
-2.558846628052613
 30
0.0
 10
838.5552206959578
 20
-2.353015052281859
 30
0.0
 10
838.5559875740123
 20
-2.215087874382682
 30
0.0
 10
838.5564210299445
 20
-2.137128473783667
 30
0.0
  0
SPLINE
  5
EE
330
1F
100
AcDbEntity
  8
0
  6
Continuous
 62
     7
370
    25
100
AcDbSpline
210
0.0
220
0.0
230
1.0
 70
     8
 71
     3
 72
    18
 73
    14
 74
     0
 42
0.00000001
 43
0.00000001
 40
0.0
 40
0.0
 40
0.0
 40
0.0
 40
0.1250000000000032
 40
0.1250000000000032
 40
0.2500000000000064
 40
0.2500000000000064
 40
0.5000000000000131
 40
0.5000000000000131
 40
0.7500000000000198
 40
0.7500000000000198
 40
0.8750000000000099
 40
0.8750000000000099
 40
1.0
 40
1.0
 40
1.0
 40
1.0
 10
708.6091999999232
 20
7.335000000589565
 30
0.0
 10
708.6091999999236
 20
7.335000000589565
 30
0.0
 10
708.6091999999242
 20
7.334783567932046
 30
0.0
 10
708.6091999999425
 20
7.322978152664472
 30
0.0
 10
708.6091999999601
 20
7.311425922169157
 30
0.0
 10
708.6092000000326
 20
7.250210403715651
 30
0.0
 10
708.6092000001123
 20
7.172934685719056
 30
0.0
 10
708.6092000001632
 20
6.931391952505638
 30
0.0
 10
708.6092000001029
 20
6.764797851896597
 30
0.0
 10
708.6091999999967
 20
6.48746260235783
 30
0.0
 10
708.6091999999637
 20
6.391143232019447
 30
0.0
 10
708.6091999999262
 20
6.198240053444771
 30
0.0
 10
708.6091999999232
 20
6.101848696615675
 30
0.0
 10
708.6091999999232
 20
6.005707661134951
 30
0.0
  0
SPLINE
  5
EF
330
1F
100
AcDbEntity
  8
0
  6
Continuous
 62
     7
370
    25
100
AcDbSpline
210
0.0
220
0.0
230
1.0
 70
    24
 71
     3
 72
    28
 73
    24
 74
     0
 42
0.00000001
 43
0.00000001
 40
0.0
 40
0.0
 40
0.0
 40
0.0
 40
0.2499999999996322
 40
0.2499999999996322
 40
0.253906249999625
 40
0.253906249999625
 40
0.2578124999996179
 40
0.2656249999996037
 40
0.2812499999995752
 40
0.3124999999995188
 40
0.3749999999994059
 40
0.4999999999992452
 40
0.4999999999992452
 40
0.7499999999989229
 40
0.7499999999989229
 40
0.7539062499989252
 40
0.7539062499989252
 40
0.7578124999989275
 40
0.7656249999989668
 40
0.7812499999990454
 40
0.812499999999174
 40
0.8749999999994549
 40
1.0
 40
1.0
 40
1.0
 40
1.0
 10
-708.609199999916
 20
7.335000000589509
 30
0.0
 10
-708.6091999999157
 20
7.335000000589509
 30
0.0
 10
-708.6091999999159
 20
7.320818532351003
 30
0.0
 10
-708.6091999999161
 20
7.292012424991556
 30
0.0
 10
-708.6091999999161
 20
7.291080707943376
 30
0.0
 10
-708.609199999916
 20
7.289679161985751
 30
0.0
 10
-708.609199999916
 20
7.287550185022306
 30
0.0
 10
-708.609199999916
 20
7.282395965918454
 30
0.0
 10
-708.6091999999161
 20
7.271341102954243
 30
0.0
 10
-708.6091999999161
 20
7.246245677999974
 30
0.0
 10
-708.6091999999161
 20
7.184112031987821
 30
0.0
 10
-708.6091999999159
 20
7.110381256371423
 30
0.0
 10
-708.6091999999159
 20
6.935621885473253
 30
0.0
 10
-708.6091999999161
 20
6.776703773429649
 30
0.0
 10
-708.609199999916
 20
6.570079014682262
 30
0.0
 10
-708.6091999999163
 20
6.569106028099513
 30
0.0
 10
-708.609199999916
 20
6.564912620676433
 30
0.0
 10
-708.609199999916
 20
6.558580931143865
 30
0.0
 10
-708.609199999916
 20
6.54351594011493
 30
0.0
 10
-708.6091999999161
 20
6.512221762912218
 30
0.0
 10
-708.609199999916
 20
6.444976627927645
 30
0.0
 10
-708.6091999999162
 20
6.29185923564185
 30
0.0
 10
-708.6091999999159
 20
6.128683546853864
 30
0.0
 10
-708.609199999916
 20
6.005707661134895
 30
0.0
  0
SPLINE
  5
F2
330
1F
100
AcDbEntity
  8
0
  6
Continuous
 62
     7
370
    25
100
AcDbSpline
210
0.0
220
0.0
230
1.0
 70
     8
 71
     3
 72
    17
 73
    13
 74
     0
 42
0.00000001
 43
0.00000001
 40
0.0
 40
0.0
 40
0.0
 40
0.0
 40
0.0740264094404097
 40
0.1400551387160303
 40
0.1984595443427404
 40
0.24977965555861
 40
0.3726701995410491
 40
0.4995255999383845
 40
0.6155254573921215
 40
0.7493629997526824
 40
0.8566615199314399
 40
1.0
 40
1.0
 40
1.0
 40
1.0
 10
-837.8881935133733
 20
6.005707661138504
 30
0.0
 10
-837.8760991844422
 20
6.074633703774812
 30
0.0
 10
-837.8532171761306
 20
6.205039143340918
 30
0.0
 10
-837.8105177393403
 20
6.385742678573337
 30
0.0
 10
-837.7639509284076
 20
6.541192792720862
 30
0.0
 10
-837.6863264918924
 20
6.735879418774848
 30
0.0
 10
-837.5477781973447
 20
6.954582424901767
 30
0.0
 10
-837.3329492206387
 20
7.138613262232196
 30
0.0
 10
-837.0888458036987
 20
7.250832651178706
 30
0.0
 10
-836.849429615294
 20
7.308802816871795
 30
0.0
 10
-836.5890252727237
 20
7.332369603274769
 30
0.0
 10
-836.4190445080219
 20
7.334042993943357
 30
0.0
 10
-836.321833065062
 20
7.335000000589509
 30
0.0
  0
SPLINE
  5
F4
330
1F
100
AcDbEntity
  8
0
  6
Continuous
 62
     7
370
    25
100
AcDbSpline
210
0.0
220
0.0
230
1.0
 70
     8
 71
     3
 72
    17
 73
    13
 74
     0
 42
0.00000001
 43
0.00000001
 40
0.0
 40
0.0
 40
0.0
 40
0.0
 40
0.0720584719253188
 40
0.1379504110981503
 40
0.1973349982992065
 40
0.2498652740206136
 40
0.3706439912531024
 40
0.4996094192267203
 40
0.6058273369146376
 40
0.7494046119926788
 40
0.9135431602267572
 40
1.0
 40
1.0
 40
1.0
 40
1.0
 10
837.8881935133104
 20
6.00570766113978
 30
0.0
 10
837.8763782801467
 20
6.072902974858685
 30
0.0
 10
837.8537589235516
 20
6.201543243014918
 30
0.0
 10
837.8114624211893
 20
6.381747133921367
 30
0.0
 10
837.7649085018393
 20
6.538787818911207
 30
0.0
 10
837.6876637771525
 20
6.732882661315942
 30
0.0
 10
837.548934838167
 20
6.953743567172655
 30
0.0
 10
837.3403306874945
 20
7.133036666588433
 30
0.0
 10
837.0945566241587
 20
7.248725089540498
 30
0.0
 10
836.8179427866693
 20
7.316994814863809
 30
0.0
 10
836.5512472418311
 20
7.334949227189913
 30
0.0
 10
836.3806798047419
 20
7.334986976769208
 30
0.0
 10
836.3218330649989
 20
7.335000000589565
 30
0.0
  0
SPLINE
  5
F5
330
1F
100
AcDbEntity
  8
0
  6
Continuous
 62
     7
370
    25
100
AcDbSpline
210
0.0
220
0.0
230
1.0
 70
     8
 71
     3
 72
    14
 73
    10
 74
     0
 42
0.00000001
 43
0.00000001
 40
0.0
 40
0.0
 40
0.0
 40
0.0
 40
0.25
 40
0.25
 40
0.5
 40
0.5
 40
0.75
 40
0.75
 40
1.0
 40
1.0
 40
1.0
 40
1.0
 10
708.6092000004409
 20
-6.446481130050863
 30
0.0
 10
708.609200000441
 20
-6.507216855433706
 30
0.0
 10
708.6092000003847
 20
-6.569819359929174
 30
0.0
 10
708.6092000001205
 20
-6.717395157238681
 30
0.0
 10
708.6091999999653
 20
-6.801070680389209
 30
0.0
 10
708.6091999999654
 20
-6.985391361430504
 30
0.0
 10
708.6092000001208
 20
-7.087301303093319
 30
0.0
 10
708.6092000003846
 20
-7.292819208877644
 30
0.0
 10
708.609200000441
 20
-7.393972623398137
 30
0.0
 10
708.6092000004409
 20
-7.492491955577329
 30
0.0
  0
SPLINE
  5
F7
330
1F
100
AcDbEntity
  8
0
  6
Continuous
 62
     7
370
    25
100
AcDbSpline
210
0.0
220
0.0
230
1.0
 70
    24
 71
     3
 72
    10
 73
     6
 74
     0
 42
0.00000001
 43
0.00000001
 40
0.0
 40
0.0
 40
0.0
 40
0.0
 40
0.5
 40
0.5
 40
1.0
 40
1.0
 40
1.0
 40
1.0
 10
-708.609200000304
 20
-6.446481130050918
 30
0.0
 10
-708.6092000003041
 20
-6.608425636202342
 30
0.0
 10
-708.609200000304
 20
-6.757322113591258
 30
0.0
 10
-708.6092000003041
 20
-7.029019010844073
 30
0.0
 10
-708.6092000003041
 20
-7.228827624170431
 30
0.0
 10
-708.609200000304
 20
-7.492491955577441
 30
0.0
  0
SPLINE
  5
F9
330
1F
100
AcDbEntity
  8
0
  6
Continuous
 62
     7
370
    25
100
AcDbSpline
210
0.0
220
0.0
230
1.0
 70
     8
 71
     3
 72
    15
 73
    11
 74
     0
 42
0.00000001
 43
0.00000001
 40
0.0
 40
0.0
 40
0.0
 40
0.0
 40
0.1161916132341045
 40
0.2230446435030321
 40
0.3214519289449629
 40
0.4125549598337794
 40
0.4977891977014987
 40
0.6287098559117603
 40
0.7955081637690163
 40
1.0
 40
1.0
 40
1.0
 40
1.0
 10
-833.3658566277227
 20
-7.492491955585711
 30
0.0
 10
-833.3739073285625
 20
-7.438801595848254
 30
0.0
 10
-833.3893616771924
 20
-7.335736092118072
 30
0.0
 10
-833.4221953394929
 20
-7.190961969214649
 30
0.0
 10
-833.4611992703635
 20
-7.062112524863329
 30
0.0
 10
-833.5070111777525
 20
-6.949358057987465
 30
0.0
 10
-833.5698919720351
 20
-6.834016333142845
 30
0.0
 10
-833.6665963973613
 20
-6.714240846547758
 30
0.0
 10
-833.8048008616497
 20
-6.579537578140283
 30
0.0
 10
-833.9129628708786
 20
-6.493736789870475
 30
0.0
 10
-833.972534201359
 20
-6.44648113005103
 30
0.0
  0
SPLINE
  5
FB
330
1F
100
AcDbEntity
  8
0
  6
Continuous
 62
     7
370
    25
100
AcDbSpline
210
0.0
220
0.0
230
1.0
 70
     8
 71
     3
 72
    15
 73
    11
 74
     0
 42
0.00000001
 43
0.00000001
 40
0.0
 40
0.0
 40
0.0
 40
0.0
 40
0.1094109928946794
 40
0.2152223678391655
 40
0.3160239878412083
 40
0.4102333839978736
 40
0.4980190956387944
 40
0.6071213570014682
 40
0.7762479157085159
 40
1.0
 40
1.0
 40
1.0
 40
1.0
 10
833.3658566276596
 20
-7.492491955585045
 30
0.0
 10
833.3735293340643
 20
-7.441816133324064
 30
0.0
 10
833.3886223150936
 20
-7.342131721633338
 30
0.0
 10
833.4206754450735
 20
-7.198880698983445
 30
0.0
 10
833.4591861762825
 20
-7.067477352093288
 30
0.0
 10
833.5054482549585
 20
-6.951692224886119
 30
0.0
 10
833.5643689629359
 20
-6.843279480587771
 30
0.0
 10
833.6580613783467
 20
-6.726163143040143
 30
0.0
 10
833.7931789708397
 20
-6.586847554384545
 30
0.0
 10
833.9074529381231
 20
-6.4974148228093
 30
0.0
 10
833.9725342012957
 20
-6.446481130050918
 30
0.0
  0
SPLINE
  5
FF
330
1F
100
AcDbEntity
  8
0
  6
Continuous
 62
     7
370
    25
100
AcDbSpline
210
0.0
220
0.0
230
1.0
 70
     8
 71
     3
 72
    38
 73
    34
 74
     0
 42
0.00000001
 43
0.00000001
 40
0.0
 40
0.0
 40
0.0
 40
0.0
 40
0.0624999999999998
 40
0.0624999999999998
 40
0.1249999999999996
 40
0.1249999999999996
 40
0.1874999999999994
 40
0.1874999999999994
 40
0.2499999999999993
 40
0.2499999999999993
 40
0.3124999999999994
 40
0.3124999999999994
 40
0.3749999999999994
 40
0.3749999999999994
 40
0.4374999999999996
 40
0.4374999999999996
 40
0.4999999999999997
 40
0.4999999999999997
 40
0.5624999999999997
 40
0.5624999999999997
 40
0.6249999999999998
 40
0.6249999999999998
 40
0.6874999999999998
 40
0.6874999999999998
 40
0.7499999999999998
 40
0.7499999999999998
 40
0.8124999999999999
 40
0.8124999999999999
 40
0.8749999999999999
 40
0.8749999999999999
 40
0.9375
 40
0.9375
 40
1.0
 40
1.0
 40
1.0
 40
1.0
 10
823.2418147183149
 20
-18.24975772349957
 30
0.0
 10
823.2226847198932
 20
-17.98925720231664
 30
0.0
 10
823.177877995589
 20
-17.73195937816524
 30
0.0
 10
823.03581422827
 20
-17.22394299408764
 30
0.0
 10
822.939001657497
 20
-16.97667587090268
 30
0.0
 10
822.7006429788605
 20
-16.50928646790273
 30
0.0
 10
822.5574835423174
 20
-16.28563114881088
 30
0.0
 10
822.2272654281456
 20
-15.86798063500472
 30
0.0
 10
822.0437398486964
 20
-15.67789080504295
 30
0.0
 10
821.6410148629916
 20
-15.33438371151896
 30
0.0
 10
821.4190741188589
 20
-15.17968615571158
 30
0.0
 10
820.9544093432273
 20
-14.91928244942919
 30
0.0
 10
820.711308504711
 20
-14.81243218556638
 30
0.0
 10
820.2034896527028
 20
-14.64567449700466
 30
0.0
 10
819.9385776090483
 20
-14.58650264976286
 30
0.0
 10
819.4099220860908
 20
-14.52106382106982
 30
0.0
 10
819.1433280925394
 20
-14.51367895430783
 30
0.0
 10
818.6054281033066
 20
-14.55143519063667
 30
0.0
 10
818.3414473384814
 20
-14.59622812415029
 30
0.0
 10
817.8278533833192
 20
-14.73487600608436
 30
0.0
 10
817.5749719258066
 20
-14.83008888690368
 30
0.0
 10
817.0952983624456
 20
-15.06654649269062
 30
0.0
 10
816.8700366610411
 20
-15.20635005717458
 30
0.0
 10
816.4482793519401
 20
-15.52836904622884
 30
0.0
 10
816.2506596205257
 20
-15.71251798898021
 30
0.0
 10
815.9012015394611
 20
-16.10894419378822
 30
0.0
 10
815.7471596410687
 20
-16.32242410885792
 30
0.0
 10
815.4812010956562
 20
-16.78037979755498
 30
0.0
 10
815.3711632556532
 20
-17.02273638329199
 30
0.0
 10
815.2028079038657
 20
-17.51819616313383
 30
0.0
 10
815.1430054532298
 20
-17.77468443424479
 30
0.0
 10
815.0756684524141
 20
-18.29828809112533
 30
0.0
 10
815.0686651458642
 20
-18.55915919041895
 30
0.0
 10
815.087483359182
 20
-18.81915947506935
 30
0.0
  0
SPLINE
  5
100
330
1F
100
AcDbEntity
  8
0
  6
Continuous
 62
     7
370
    25
100
AcDbSpline
210
0.0
220
0.0
230
1.0
 70
     8
 71
     3
 72
    36
 73
    32
 74
     0
 42
0.00000001
 43
0.00000001
 40
0.0
 40
0.0
 40
0.0
 40
0.0
 40
0.0625
 40
0.0625
 40
0.125
 40
0.125
 40
0.1875
 40
0.1875
 40
0.25
 40
0.25
 40
0.3125
 40
0.3125
 40
0.375
 40
0.375
 40
0.4375
 40
0.4375
 40
0.5
 40
0.5
 40
0.5625
 40
0.5625
 40
0.625
 40
0.625
 40
0.6875
 40
0.6875
 40
0.75
 40
0.75
 40
0.8125
 40
0.8125
 40
0.875
 40
0.875
 40
1.0
 40
1.0
 40
1.0
 40
1.0
 10
815.087483359182
 20
-18.81915947506935
 30
0.0
 10
815.1063015724976
 20
-19.07915975972013
 30
0.0
 10
815.1519475448832
 20
-19.3410970475611
 30
0.0
 10
815.2933575232989
 20
-19.84509549776809
 30
0.0
 10
815.3884708239539
 20
-20.08780549124845
 30
0.0
 10
815.6275177791939
 20
-20.55472024056382
 30
0.0
 10
815.7723486650787
 20
-20.77893229647021
 30
0.0
 10
816.0990708078674
 20
-21.18911184364153
 30
0.0
 10
816.282129859027
 20
-21.37781843666703
 30
0.0
 10
816.6890368790665
 20
-21.72158078267233
 30
0.0
 10
816.9081314681551
 20
-21.87228645131034
 30
0.0
 10
817.3706187876188
 20
-22.12889090738474
 30
0.0
 10
817.6174031791377
 20
-22.23629423493495
 30
0.0
 10
818.1266686774678
 20
-22.4013257596235
 30
0.0
 10
818.3863892232821
 20
-22.45864628059358
 30
0.0
 10
818.9158301969347
 20
-22.52381830893568
 30
0.0
 10
819.1879808003649
 20
-22.53111925516033
 30
0.0
 10
819.7204998853626
 20
-22.49438850234647
 30
0.0
 10
819.9830538293642
 20
-22.45104991738922
 30
0.0
 10
820.5005829736199
 20
-22.31366338813218
 30
0.0
 10
820.7533747927622
 20
-22.21957135978081
 30
0.0
 10
821.22974173965
 20
-21.98815995239706
 30
0.0
 10
821.4567020811202
 20
-21.84968384364516
 30
0.0
 10
821.8827338168161
 20
-21.52817159790277
 30
0.0
 10
822.0762504901321
 20
-21.3495464060171
 30
0.0
 10
822.42560151182
 20
-20.95772628222342
 30
0.0
 10
822.5828078818862
 20
-20.74184444654231
 30
0.0
 10
822.8479927018939
 20
-20.28844575901373
 30
0.0
 10
822.9566424313344
 20
-20.05130460966004
 30
0.0
 10
823.2109722185078
 20
-19.30852084913132
 30
0.0
 10
823.280074712828
 20
-18.77075876602952
 30
0.0
 10
823.2418147183149
 20
-18.24975772349957
 30
0.0
  0
SPLINE
  5
101
330
1F
100
AcDbEntity
  8
0
  6
Continuous
 62
     7
370
    25
100
AcDbSpline
210
0.0
220
0.0
230
1.0
 70
     8
 71
     3
 72
    30
 73
    26
 74
     0
 42
0.00000001
 43
0.00000001
 40
0.0
 40
0.0
 40
0.0
 40
0.0
 40
0.0156381248415783
 40
0.0312389039689415
 40
0.0468403042421258
 40
0.0624802452467894
 40
0.0938241986295928
 40
0.1251704949163651
 40
0.1564839081433769
 40
0.1877991783528248
 40
0.250167209445078
 40
0.3127957812752388
 40
0.3750444349851412
 40
0.4376249933109285
 40
0.4999694385657018
 40
0.5623973114322088
 40
0.6249513830112694
 40
0.6872332601318878
 40
0.7498891357972636
 40
0.8122268582295319
 40
0.8748507377166914
 40
0.9060429343484168
 40
0.9374262419064167
 40
0.9688030537938063
 40
0.9999999999999999
 40
0.9999999999999999
 40
0.9999999999999999
 40
0.9999999999999999
 10
-823.2418147181843
 20
-18.24975772351761
 30
0.0
 10
-823.2360916865919
 20
-18.18459705442832
 30
0.0
 10
-823.2246592906915
 20
-18.0544313277281
 30
0.0
 10
-823.1951772165432
 20
-17.86050846300352
 30
0.0
 10
-823.1566883030226
 20
-17.66808729759795
 30
0.0
 10
-823.0922418665988
 20
-17.41372920688444
 30
0.0
 10
-822.9880094369292
 20
-17.10136909121224
 30
0.0
 10
-822.825737121928
 20
-16.74028293574481
 30
0.0
 10
-822.6284083918324
 20
-16.39623382036559
 30
0.0
 10
-822.3213552890952
 20
-15.96608025474583
 30
0.0
 10
-821.8588065846944
 20
-15.48584943895304
 30
0.0
 10
-821.2012268540459
 20
-15.02784005142432
 30
0.0
 10
-820.4644138416603
 20
-14.70403373489049
 30
0.0
 10
-819.6785539129057
 20
-14.52812380194068
 30
0.0
 10
-818.8721437212138
 20
-14.50671953186261
 30
0.0
 10
-818.0771244145786
 20
-14.64063300573143
 30
0.0
 10
-817.3243507339979
 20
-14.92469319171708
 30
0.0
 10
-816.6417124371615
 20
-15.34793969346382
 30
0.0
 10
-816.0568775449889
 20
-15.89292817392679
 30
0.0
 10
-815.5907252573058
 20
-16.53972904078249
 30
0.0
 10
-815.3169552878755
 20
-17.14162900257127
 30
0.0
 10
-815.1727392437818
 20
-17.64722432106969
 30
0.0
 10
-815.1039749977531
 20
-18.03502121598022
 30
0.0
 10
-815.0706047775238
 20
-18.42745672716439
 30
0.0
 10
-815.0818679571868
 20
-18.6888423398171
 30
0.0
 10
-815.087483359246
 20
-18.81915947507373
 30
0.0
  0
SPLINE
  5
102
330
1F
100
AcDbEntity
  8
0
  6
Continuous
 62
     7
370
    25
100
AcDbSpline
210
0.0
220
0.0
230
1.0
 70
     8
 71
     3
 72
    31
 73
    27
 74
     0
 42
0.00000001
 43
0.00000001
 40
0.0
 40
0.0
 40
0.0
 40
0.0
 40
0.0157064893887166
 40
0.0313743047930605
 40
0.0470420041427273
 40
0.0627481014298155
 40
0.0939283097221473
 40
0.1251099507564458
 40
0.1564568749419418
 40
0.1878071786178152
 40
0.2501489500540053
 40
0.3125856116412091
 40
0.3750832215464923
 40
0.43729816973404
 40
0.4998500629903363
 40
0.5620548277549335
 40
0.6245599330588925
 40
0.6869732618095418
 40
0.7493248067504501
 40
0.811933185471158
 40
0.8431045784361604
 40
0.8742899061179567
 40
0.9057235349978487
 40
0.9371700387828892
 40
0.968581538275056
 40
0.9999999999999999
 40
0.9999999999999999
 40
0.9999999999999999
 40
0.9999999999999999
 10
-815.087483359246
 20
-18.81915947507373
 30
0.0
 10
-815.0931673811594
 20
-18.8845817250437
 30
0.0
 10
-815.1045214292569
 20
-19.0152651362126
 30
0.0
 10
-815.1340104060484
 20
-19.20978784957722
 30
0.0
 10
-815.1725972829574
 20
-19.40267014838831
 30
0.0
 10
-815.2370017609089
 20
-19.65624541544603
 30
0.0
 10
-815.3408626888879
 20
-19.96645206737524
 30
0.0
 10
-815.5024693383399
 20
-20.32474295048165
 30
0.0
 10
-815.6994465216554
 20
-20.66648893160383
 30
0.0
 10
-816.0065389423438
 20
-21.09384178940121
 30
0.0
 10
-816.4686457863049
 20
-21.56942993607114
 30
0.0
 10
-817.1264696810355
 20
-22.02300382450195
 30
0.0
 10
-817.8625361235573
 20
-22.34271488293316
 30
0.0
 10
-818.6492093009573
 20
-22.5168049496593
 30
0.0
 10
-819.4546362994795
 20
-22.53838983446982
 30
0.0
 10
-820.2500206674265
 20
-22.4067019895205
 30
0.0
 10
-821.0030430394631
 20
-22.12701385221805
 30
0.0
 10
-821.6856766836515
 20
-21.70932207442749
 30
0.0
 10
-822.2715620742188
 20
-21.16983435141079
 30
0.0
 10
-822.6602289110979
 20
-20.63529956140203
 30
0.0
 10
-822.9022891420567
 20
-20.17001650929695
 30
0.0
 10
-823.047926804263
 20
-19.80478430969051
 30
0.0
 10
-823.1569112964522
 20
-19.42611784432208
 30
0.0
 10
-823.2263119961204
 20
-19.03764299524652
 30
0.0
 10
-823.2593534456348
 20
-18.64396970771437
 30
0.0
 10
-823.247661392536
 20
-18.38117142520484
 30
0.0
 10
-823.2418147181843
 20
-18.24975772351761
 30
0.0
  0
SPLINE
  5
103
330
1F
100
AcDbEntity
  8
0
  6
Continuous
 62
     7
370
    25
100
AcDbSpline
210
0.0
220
0.0
230
1.0
 70
     8
 71
     3
 72
    20
 73
    16
 74
     0
 42
0.00000001
 43
0.00000001
 40
0.0
 40
0.0
 40
0.0
 40
0.0
 40
0.0426565652731156
 40
0.0849204937483353
 40
0.1267951779908858
 40
0.1682841060520437
 40
0.2093908641814611
 40
0.2501191395826238
 40
0.3755372072488796
 40
0.5002164148319067
 40
0.6241269223741462
 40
0.7501287784446301
 40
0.8314332423015789
 40
0.9147157548888474
 40
1.0
 40
1.0
 40
1.0
 40
1.0
 10
833.3658566276592
 20
-7.492491955585711
 30
0.0
 10
833.3202418182494
 20
-7.82419753788205
 30
0.0
 10
833.2294320656936
 20
-8.484555483894207
 30
0.0
 10
833.086041856383
 20
-9.468342838508448
 30
0.0
 10
832.9381737350144
 20
-10.44133533185165
 30
0.0
 10
832.7852824658476
 20
-11.40338440436056
 30
0.0
 10
832.6275109074513
 20
-12.35453145004412
 30
0.0
 10
832.3515683647456
 20
-13.94931862272553
 30
0.0
 10
831.9327658728472
 20
-16.17616663103438
 30
0.0
 10
831.332390714767
 20
-19.01521376034249
 30
0.0
 10
830.6690482846792
 20
-21.83094735833185
 30
0.0
 10
830.0307326473448
 20
-24.29504683403705
 30
0.0
 10
829.4347730745335
 20
-26.43729741480816
 30
0.0
 10
828.901300692467
 20
-28.26747122050471
 30
0.0
 10
828.5235207288579
 20
-29.49132532411986
 30
0.0
 10
828.3323876759686
 20
-30.11051901793071
 30
0.0
  0
SPLINE
  5
104
330
1F
100
AcDbEntity
  8
0
  6
Continuous
 62
     7
370
    25
100
AcDbSpline
210
0.0
220
0.0
230
1.0
 70
     8
 71
     3
 72
    21
 73
    17
 74
     0
 42
0.00000001
 43
0.00000001
 40
0.0
 40
0.0
 40
0.0
 40
0.0
 40
0.0435930005303292
 40
0.0863585510891403
 40
0.1283470126788806
 40
0.1696063634873352
 40
0.2101822429894699
 40
0.2501179963301097
 40
0.3771289976457971
 40
0.5002141409285568
 40
0.5840087944961077
 40
0.6672517522542698
 40
0.7502275281419862
 40
0.8331938203333775
 40
0.9163823784694767
 40
1.0
 40
1.0
 40
1.0
 40
1.0
 10
-833.3658566277242
 20
-7.492491955588543
 30
0.0
 10
-833.3192315126463
 20
-7.831479204466863
 30
0.0
 10
-833.2268662858094
 20
-8.503019297938064
 30
0.0
 10
-833.0815664671346
 20
-9.498810632810994
 30
0.0
 10
-832.9330305303582
 20
-10.47473273592331
 30
0.0
 10
-832.780703892711
 20
-11.43171436627682
 30
0.0
 10
-832.6247303436572
 20
-12.37082307289472
 30
0.0
 10
-832.3482836789633
 20
-13.96763703307446
 30
0.0
 10
-831.9304478492869
 20
-16.18837958368852
 30
0.0
 10
-831.3939803165567
 20
-18.7226904474595
 30
0.0
 10
-830.8880202220987
 20
-20.90697384742673
 30
0.0
 10
-830.4250751110541
 20
-22.77639199974968
 30
0.0
 10
-829.9383099878572
 20
-24.62663539455295
 30
0.0
 10
-829.4272581732223
 20
-26.46319138082964
 30
0.0
 10
-828.8937067025403
 20
-28.29242223648787
 30
0.0
 10
-828.5198145966857
 20
-29.50344841262564
 30
0.0
 10
-828.3323876760339
 20
-30.11051901793677
 30
0.0
  0
SPLINE
  5
106
330
1F
100
AcDbEntity
  8
0
  6
Continuous
 62
     7
370
    25
100
AcDbSpline
210
0.0
220
0.0
230
1.0
 70
     8
 71
     3
 72
    23
 73
    19
 74
     0
 42
0.00000001
 43
0.00000001
 40
0.0
 40
0.0
 40
0.0
 40
0.0
 40
0.0299936370673936
 40
0.0603208720112771
 40
0.0909817913072476
 40
0.1219764785397392
 40
0.1533050145235005
 40
0.1849674774187131
 40
0.2169639428401959
 40
0.2492944839609937
 40
0.3553780265087262
 40
0.4997837041175669
 40
0.647073934857079
 40
0.7508496367542948
 40
0.8157934903099459
 40
0.8789661471341917
 40
0.9403681241689476
 40
1.0
 40
1.0
 40
1.0
 40
1.0
 10
-815.3244217984137
 20
-18.7495021895403
 30
0.0
 10
-815.3208589982354
 20
-18.68795946189827
 30
0.0
 10
-815.3136937713884
 20
-18.56418951065902
 30
0.0
 10
-815.3148755457908
 20
-18.37704348884084
 30
0.0
 10
-815.3250640218922
 20
-18.18808789653814
 30
0.0
 10
-815.3454154650487
 20
-17.99775015448507
 30
0.0
 10
-815.3759616473229
 20
-17.80657114515305
 30
0.0
 10
-815.417005159332
 20
-17.61510184722237
 30
0.0
 10
-815.4687454141954
 20
-17.42391210272032
 30
0.0
 10
-815.5787233469916
 20
-17.08964004731145
 30
0.0
 10
-815.8254256773571
 20
-16.55549986527516
 30
0.0
 10
-816.3237932076277
 20
-15.88603697572105
 30
0.0
 10
-816.9667253672706
 20
-15.35401579182832
 30
0.0
 10
-817.5550568924443
 20
-15.04268764668204
 30
0.0
 10
-818.0133330614981
 20
-14.87518120082582
 30
0.0
 10
-818.4004170068033
 20
-14.77837961862705
 30
0.0
 10
-818.7844604770079
 20
-14.71981813752632
 30
0.0
 10
-819.0392688843017
 20
-14.71271140155306
 30
0.0
 10
-819.164809821359
 20
-14.70921000101849
 30
0.0
  0
SPLINE
  5
107
330
1F
100
AcDbEntity
  8
0
  6
Continuous
 62
     7
370
    25
100
AcDbSpline
210
0.0
220
0.0
230
1.0
 70
     8
 71
     3
 72
    22
 73
    18
 74
     0
 42
0.00000001
 43
0.00000001
 40
0.0
 40
0.0
 40
0.0
 40
0.0
 40
0.0343260248480148
 40
0.0691259960593839
 40
0.1044000295432579
 40
0.1401482363634623
 40
0.1763707229880743
 40
0.2130675915229564
 40
0.2502389399305656
 40
0.3606319795319022
 40
0.5000796318960657
 40
0.655592103752225
 40
0.7498608987245245
 40
0.8161247968655841
 40
0.8799024762522125
 40
0.9411941270037859
 40
1.0
 40
1.0
 40
1.0
 40
1.0
 10
-819.1648098213591
 20
-14.70921000101849
 30
0.0
 10
-819.2307957018548
 20
-14.71017547759457
 30
0.0
 10
-819.3636785432358
 20
-14.71211976127701
 30
0.0
 10
-819.5638356093493
 20
-14.72799364974858
 30
0.0
 10
-819.7656145455855
 20
-14.75378946172923
 30
0.0
 10
-819.968396884694
 20
-14.79079340827294
 30
0.0
 10
-820.1715179704779
 20
-14.83906324478007
 30
0.0
 10
-820.3742880936601
 20
-14.89895831013749
 30
0.0
 10
-820.7074512712994
 20
-15.01745286530609
 30
0.0
 10
-821.2047813031036
 20
-15.25827293561183
 30
0.0
 10
-821.8318269246206
 20
-15.72167449394413
 30
0.0
 10
-822.3210462729031
 20
-16.28662667980185
 30
0.0
 10
-822.6221174455011
 20
-16.8059844201135
 30
0.0
 10
-822.789201313167
 20
-17.19608764075631
 30
0.0
 10
-822.8973541540403
 20
-17.5406272958743
 30
0.0
 10
-822.9714650716293
 20
-17.87944746000825
 30
0.0
 10
-822.9939064984235
 20
-18.10417370254613
 30
0.0
 10
-823.004894965569
 20
-18.2142111326713
 30
0.0
  0
SPLINE
  5
109
330
1F
100
AcDbEntity
  8
0
  6
Continuous
 62
     7
370
    25
100
AcDbSpline
210
0.0
220
0.0
230
1.0
 70
     8
 71
     3
 72
    22
 73
    18
 74
     0
 42
0.00000001
 43
0.00000001
 40
0.0
 40
0.0
 40
0.0
 40
0.0
 40
0.1250000000000003
 40
0.1250000000000003
 40
0.2500000000000006
 40
0.2500000000000006
 40
0.3750000000000008
 40
0.3750000000000008
 40
0.5000000000000011
 40
0.5000000000000011
 40
0.6250000000000008
 40
0.6250000000000008
 40
0.7500000000000006
 40
0.7500000000000006
 40
0.8750000000000002
 40
0.8750000000000002
 40
1.0
 40
1.0
 40
1.0
 40
1.0
 10
819.1648098212951
 20
-14.70920992988678
 30
0.0
 10
819.4051742778905
 20
-14.70920937582609
 30
0.0
 10
819.6435698221699
 20
-14.73117040867056
 30
0.0
 10
820.1164113705261
 20
-14.81912936220092
 30
0.0
 10
820.3512612409104
 20
-14.88586959432653
 30
0.0
 10
820.7974217020646
 20
-15.0585220244967
 30
0.0
 10
821.0113267606532
 20
-15.16473588149925
 30
0.0
 10
821.4203440062722
 20
-15.41783366792243
 30
0.0
 10
821.6125950088227
 20
-15.56341640098319
 30
0.0
 10
821.9631126206946
 20
-15.88383581441449
 30
0.0
 10
822.1233044719193
 20
-16.06000607445501
 30
0.0
 10
822.410740930373
 20
-16.44371188828653
 30
0.0
 10
822.5338695367789
 20
-16.6456261968721
 30
0.0
 10
822.7407156085872
 20
-17.06897972757232
 30
0.0
 10
822.8249388434979
 20
-17.29263423802241
 30
0.0
 10
822.9484150636134
 20
-17.74925195494509
 30
0.0
 10
822.987689937969
 20
-17.98036264195729
 30
0.0
 10
823.004894965505
 20
-18.21421113267124
 30
0.0
  0
SPLINE
  5
10A
330
1F
100
AcDbEntity
  8
0
  6
Continuous
 62
     7
370
    25
100
AcDbSpline
210
0.0
220
0.0
230
1.0
 70
     8
 71
     3
 72
    22
 73
    18
 74
     0
 42
0.00000001
 43
0.00000001
 40
0.0
 40
0.0
 40
0.0
 40
0.0
 40
0.125
 40
0.125
 40
0.25
 40
0.25
 40
0.375
 40
0.375
 40
0.5
 40
0.5
 40
0.625
 40
0.625
 40
0.75
 40
0.75
 40
0.875
 40
0.875
 40
1.0
 40
1.0
 40
1.0
 40
1.0
 10
815.32442179835
 20
-18.74950218954024
 30
0.0
 10
815.3058970870001
 20
-18.49405291931933
 30
0.0
 10
815.3139021802581
 20
-18.23773344604962
 30
0.0
 10
815.3850106406916
 20
-17.72299734905997
 30
0.0
 10
815.4471045625362
 20
-17.47268338344632
 30
0.0
 10
815.6216430891461
 20
-16.98850952718472
 30
0.0
 10
815.7359441143398
 20
-16.75161132803671
 30
0.0
 10
816.0090395974198
 20
-16.30983743521008
 30
0.0
 10
816.1670404777013
 20
-16.10470560045596
 30
0.0
 10
816.5259600032449
 20
-15.72606742196575
 30
0.0
 10
816.727313048079
 20
-15.55326666444479
 30
0.0
 10
817.1553431431381
 20
-15.25567517517146
 30
0.0
 10
817.3845820107907
 20
-15.12827502663883
 30
0.0
 10
817.8715128429833
 20
-14.91978868452382
 30
0.0
 10
818.1217132372849
 20
-14.84177370600848
 30
0.0
 10
818.6353008176205
 20
-14.73635030832066
 30
0.0
 10
818.9017207164427
 20
-14.70920933194508
 30
0.0
 10
819.1648098212951
 20
-14.70920992988678
 30
0.0
  0
SPLINE
  5
10E
330
1F
100
AcDbEntity
  8
0
  6
Continuous
 62
     7
370
    25
100
AcDbSpline
210
0.0
220
0.0
230
1.0
 70
     8
 71
     3
 72
    22
 73
    18
 74
     0
 42
0.00000001
 43
0.00000001
 40
0.0
 40
0.0
 40
0.0
 40
0.0
 40
0.03397711684527
 40
0.0684452468265469
 40
0.1034044746002891
 40
0.1388548810442287
 40
0.1747965434597771
 40
0.2112295357608332
 40
0.2481539286500843
 40
0.3553090679553994
 40
0.5001630074724135
 40
0.6480067684806947
 40
0.7505621824375484
 40
0.8160517430280236
 40
0.8794543602864097
 40
0.9407703298247412
 40
0.9999999999999999
 40
0.9999999999999999
 40
0.9999999999999999
 40
0.9999999999999999
 10
-819.1648098213635
 20
-22.23044176193684
 30
0.0
 10
-819.0994483554706
 20
-22.2295094170662
 30
0.0
 10
-818.9677808662492
 20
-22.22763125373978
 30
0.0
 10
-818.7693819605998
 20
-22.21228100433364
 30
0.0
 10
-818.5692323652587
 20
-22.18730390957774
 30
0.0
 10
-818.3679380408265
 20
-22.15143052990265
 30
0.0
 10
-818.1661518201836
 20
-22.10457863789966
 30
0.0
 10
-817.9645549019633
 20
-22.04637687322802
 30
0.0
 10
-817.6376117743299
 20
-21.93267891777895
 30
0.0
 10
-817.1354906616649
 20
-21.69609521372223
 30
0.0
 10
-816.5143652750689
 20
-21.24580619821304
 30
0.0
 10
-816.0149087123057
 20
-20.6803685365064
 30
0.0
 10
-815.7111669150388
 20
-20.16581387325284
 30
0.0
 10
-815.5392146413913
 20
-19.76512673068503
 30
0.0
 10
-815.4318055738477
 20
-19.42381770288248
 30
0.0
 10
-815.3577241940411
 20
-19.08567331376776
 30
0.0
 10
-815.3353937717633
 20
-18.86025880468811
 30
0.0
 10
-815.3244217984136
 20
-18.7495021895403
 30
0.0
  0
SPLINE
  5
111
330
1F
100
AcDbEntity
  8
0
  6
Continuous
 62
     7
370
    25
100
AcDbSpline
210
0.0
220
0.0
230
1.0
 70
     8
 71
     3
 72
    23
 73
    19
 74
     0
 42
0.00000001
 43
0.00000001
 40
0.0
 40
0.0
 40
0.0
 40
0.0
 40
0.0304199127281701
 40
0.0610929295495873
 40
0.0920191410935791
 40
0.12319863573836
 40
0.1546314996824786
 40
0.1863178170134756
 40
0.2182576697738595
 40
0.250451138024547
 40
0.3590176623670607
 40
0.4954621277820768
 40
0.6534616099598369
 40
0.7516518119771829
 40
0.816689627446435
 40
0.8797600433339582
 40
0.94086337724194
 40
1.0
 40
1.0
 40
1.0
 40
1.0
 10
-823.0048949655691
 20
-18.2142111326713
 30
0.0
 10
-823.0085680462951
 20
-18.27671690842042
 30
0.0
 10
-823.0159447690369
 20
-18.40224852938221
 30
0.0
 10
-823.0147562414777
 20
-18.59162372758538
 30
0.0
 10
-823.0043858320178
 20
-18.78217185350273
 30
0.0
 10
-822.9837314366133
 20
-18.97344470875539
 30
0.0
 10
-822.9528424659832
 20
-19.16490225682544
 30
0.0
 10
-822.9114934461061
 20
-19.35599789870468
 30
0.0
 10
-822.8595613645033
 20
-19.54617601591146
 30
0.0
 10
-822.7476421430906
 20
-19.88346614753966
 30
0.0
 10
-822.5038382411266
 20
-20.40341468067863
 30
0.0
 10
-822.0001868513001
 20
-21.07578626887718
 30
0.0
 10
-821.3594977858735
 20
-21.5986485447538
 30
0.0
 10
-820.7596831398571
 20
-21.9074052799485
 30
0.0
 10
-820.3119552669021
 20
-22.06823797882379
 30
0.0
 10
-819.925140372633
 20
-22.16308251022614
 30
0.0
 10
-819.5426763581025
 20
-22.22014831130359
 30
0.0
 10
-819.289384338883
 20
-22.2270482313604
 30
0.0
 10
-819.1648098213636
 20
-22.23044176193684
 30
0.0
  0
SPLINE
  5
113
330
1F
100
AcDbEntity
  8
0
  6
Continuous
 62
     7
370
    25
100
AcDbSpline
210
0.0
220
0.0
230
1.0
 70
     8
 71
     3
 72
    20
 73
    16
 74
     0
 42
0.00000001
 43
0.00000001
 40
0.0
 40
0.0
 40
0.0
 40
0.0
 40
0.25
 40
0.25
 40
0.375
 40
0.375
 40
0.5
 40
0.5
 40
0.625
 40
0.625
 40
0.75
 40
0.75
 40
0.875
 40
0.875
 40
1.0
 40
1.0
 40
1.0
 40
1.0
 10
823.004894965505
 20
-18.21421113267124
 30
0.0
 10
823.0425554608289
 20
-18.72608767399003
 30
0.0
 10
822.9694323099347
 20
-19.25496996236398
 30
0.0
 10
822.7062895056266
 20
-19.97902611680852
 30
0.0
 10
822.5941493424253
 20
-20.20969823404617
 30
0.0
 10
822.3201937600959
 20
-20.64942259194191
 30
0.0
 10
822.1595571306536
 20
-20.85550753626248
 30
0.0
 10
821.8022079664568
 20
-21.2280086899006
 30
0.0
 10
821.6022767348663
 20
-21.39784114605175
 30
0.0
 10
821.1703621573711
 20
-21.69406767052068
 30
0.0
 10
820.9418271538307
 20
-21.8187047598381
 30
0.0
 10
820.4600756797523
 20
-22.02205378457545
 30
0.0
 10
820.2045889049442
 20
-22.10073395146406
 30
0.0
 10
819.6904686725425
 20
-22.20424162819684
 30
0.0
 10
819.4296214174192
 20
-22.23043992286161
 30
0.0
 10
819.1648098213
 20
-22.23044173949379
 30
0.0
  0
SPLINE
  5
116
330
1F
100
AcDbEntity
  8
0
  6
Continuous
 62
     7
370
    25
100
AcDbSpline
210
0.0
220
0.0
230
1.0
 70
     8
 71
     3
 72
    22
 73
    18
 74
     0
 42
0.00000001
 43
0.00000001
 40
0.0
 40
0.0
 40
0.0
 40
0.0
 40
0.125
 40
0.125
 40
0.25
 40
0.25
 40
0.375
 40
0.375
 40
0.5
 40
0.5
 40
0.625
 40
0.625
 40
0.75
 40
0.75
 40
0.875
 40
0.875
 40
1.0
 40
1.0
 40
1.0
 40
1.0
 10
819.1648098213
 20
-22.23044173949379
 30
0.0
 10
818.9228343671916
 20
-22.23044027068955
 30
0.0
 10
818.6816838966799
 20
-22.20821486378666
 30
0.0
 10
818.2111850300288
 20
-22.12156652550023
 30
0.0
 10
817.9793281008091
 20
-22.05684160992727
 30
0.0
 10
817.5282711520291
 20
-21.88450680360615
 30
0.0
 10
817.3143974699292
 20
-21.77912266348137
 30
0.0
 10
816.9091005703302
 20
-21.53115502841862
 30
0.0
 10
816.7159022752679
 20
-21.38683917723316
 30
0.0
 10
816.3631791781169
 20
-21.06742570268849
 30
0.0
 10
816.2040700617816
 20
-20.89344746200544
 30
0.0
 10
815.9199000359249
 20
-20.51726719642272
 30
0.0
 10
815.79414359005
 20
-20.31297467967208
 30
0.0
 10
815.5871042095878
 20
-19.89087127500738
 30
0.0
 10
815.5044715420493
 20
-19.67191726529682
 30
0.0
 10
815.3812782745584
 20
-19.2179747852112
 30
0.0
 10
815.3413477777581
 20
-18.98290550718962
 30
0.0
 10
815.32442179835
 20
-18.74950218954024
 30
0.0
  0
SPLINE
  5
121
330
1F
100
AcDbEntity
  8
0
  6
Continuous
 62
     7
370
    25
100
AcDbSpline
210
0.0
220
0.0
230
1.0
 70
     8
 71
     3
 72
    14
 73
    10
 74
     0
 42
0.00000001
 43
0.00000001
 40
0.0
 40
0.0
 40
0.0
 40
0.0
 40
0.25
 40
0.25
 40
0.5
 40
0.5
 40
0.75
 40
0.75
 40
1.0
 40
1.0
 40
1.0
 40
1.0
 10
708.6092000003232
 20
-30.11051902152295
 30
0.0
 10
708.6092000003231
 20
-30.1740917906751
 30
0.0
 10
708.6092000002989
 20
-30.23890777964017
 30
0.0
 10
708.6092000001371
 20
-30.37070775869621
 30
0.0
 10
708.6092000000142
 20
-30.43641603265818
 30
0.0
 10
708.609199999951
 20
-30.55840736333698
 30
0.0
 10
708.6092000000506
 20
-30.61536916532198
 30
0.0
 10
708.6092000002675
 20
-30.71903056751502
 30
0.0
 10
708.6092000003233
 20
-30.76495625929621
 30
0.0
 10
708.6092000003232
 20
-30.80981970820729
 30
0.0
  0
SPLINE
  5
123
330
1F
100
AcDbEntity
  8
0
  6
Continuous
 62
     7
370
    25
100
AcDbSpline
210
0.0
220
0.0
230
1.0
 70
    24
 71
     3
 72
    10
 73
     6
 74
     0
 42
0.00000001
 43
0.00000001
 40
0.0
 40
0.0
 40
0.0
 40
0.0
 40
0.5
 40
0.5
 40
1.0
 40
1.0
 40
1.0
 40
1.0
 10
-708.6092000002351
 20
-30.11051902152301
 30
0.0
 10
-708.6092000002352
 20
-30.27853674764469
 30
0.0
 10
-708.6092000002351
 20
-30.40746559102325
 30
0.0
 10
-708.6092000002352
 20
-30.58714551229402
 30
0.0
 10
-708.6092000002352
 20
-30.68984001133873
 30
0.0
 10
-708.6092000002351
 20
-30.80981970820734
 30
0.0
  0
SPLINE
  5
125
330
1F
100
AcDbEntity
  8
0
  6
Continuous
 62
     7
370
    25
100
AcDbSpline
210
0.0
220
0.0
230
1.0
 70
     8
 71
     3
 72
    12
 73
     8
 74
     0
 42
0.00000001
 43
0.00000001
 40
0.0
 40
0.0
 40
0.0
 40
0.0
 40
0.1986659020903837
 40
0.365220601975522
 40
0.5005679675740825
 40
0.7229022259027901
 40
0.9999999999999999
 40
0.9999999999999999
 40
0.9999999999999999
 40
0.9999999999999999
 10
-827.8870951948937
 20
-30.80981970873092
 30
0.0
 10
-827.9245812862827
 20
-30.77479299009361
 30
0.0
 10
-827.993494435035
 20
-30.7104010681214
 30
0.0
 10
-828.083419764442
 20
-30.61305782557472
 30
0.0
 10
-828.1718331758317
 20
-30.50080527322885
 30
0.0
 10
-828.2572132577177
 20
-30.33517988181411
 30
0.0
 10
-828.3055623516093
 20
-30.19068725459845
 30
0.0
 10
-828.3323876760321
 20
-30.11051901793083
 30
0.0
  0
SPLINE
  5
127
330
1F
100
AcDbEntity
  8
0
  6
Continuous
 62
     7
370
    25
100
AcDbSpline
210
0.0
220
0.0
230
1.0
 70
     8
 71
     3
 72
    12
 73
     8
 74
     0
 42
0.00000001
 43
0.00000001
 40
0.0
 40
0.0
 40
0.0
 40
0.0
 40
0.2284493356468135
 40
0.3975424587458777
 40
0.5005370540428995
 40
0.7358704505572689
 40
1.0
 40
1.0
 40
1.0
 40
1.0
 10
827.8870951948303
 20
-30.80981970873087
 30
0.0
 10
827.930139127441
 20
-30.76991852417394
 30
0.0
 10
828.0050432227215
 20
-30.70048336923803
 30
0.0
 10
828.0930637466255
 20
-30.60045943991907
 30
0.0
 10
828.1790576293986
 20
-30.48936039371147
 30
0.0
 10
828.2577904216973
 20
-30.33245789710548
 30
0.0
 10
828.3065842018918
 20
-30.1872885230105
 30
0.0
 10
828.3323876759687
 20
-30.11051902152306
 30
0.0
  0
SPLINE
  5
12B
330
1F
100
AcDbEntity
  8
0
  6
Continuous
 62
     7
370
    25
100
AcDbSpline
210
0.0
220
0.0
230
1.0
 70
     8
 71
     3
 72
    38
 73
    34
 74
     0
 42
0.00000001
 43
0.00000001
 40
0.0
 40
0.0
 40
0.0
 40
0.0
 40
0.0625
 40
0.0625
 40
0.125
 40
0.125
 40
0.1875
 40
0.1875
 40
0.25
 40
0.25
 40
0.3125
 40
0.3125
 40
0.375
 40
0.375
 40
0.4375
 40
0.4375
 40
0.5
 40
0.5
 40
0.5625
 40
0.5625
 40
0.625
 40
0.625
 40
0.6875
 40
0.6875
 40
0.75
 40
0.75
 40
0.8125
 40
0.8125
 40
0.875
 40
0.875
 40
0.9375
 40
0.9375
 40
1.0
 40
1.0
 40
1.0
 40
1.0
 10
783.141817098644
 20
-57.79911300152057
 30
0.0
 10
783.408592740852
 20
-57.79894895569721
 30
0.0
 10
783.6737290967096
 20
-57.78371491875328
 30
0.0
 10
784.2006537630214
 20
-57.72244176290603
 30
0.0
 10
784.4589370550135
 20
-57.67650817778846
 30
0.0
 10
784.9507337799007
 20
-57.55739494246848
 30
0.0
 10
785.1879544408067
 20
-57.48342882840773
 30
0.0
 10
785.6352034287847
 20
-57.30850551623651
 30
0.0
 10
785.8409824663499
 20
-57.20945601396765
 30
0.0
 10
786.217705172438
 20
-56.98878444023908
 30
0.0
 10
786.3901373858754
 20
-56.86561313243621
 30
0.0
 10
786.6867503700078
 20
-56.6047528473258
 30
0.0
 10
786.8121133218906
 20
-56.46689923192311
 30
0.0
 10
787.0168052822145
 20
-56.17619718110467
 30
0.0
 10
787.0954064235843
 20
-56.0231950812754
 30
0.0
 10
787.1989921689253
 20
-55.71523410985674
 30
0.0
 10
787.2253079262947
 20
-55.55865193800863
 30
0.0
 10
787.2251294894793
 20
-55.24008734401426
 30
0.0
 10
787.1984651888707
 20
-55.08239101274876
 30
0.0
 10
787.0944359279911
 20
-54.77303940798816
 30
0.0
 10
787.0159350545468
 20
-54.61938397157107
 30
0.0
 10
786.8103416639279
 20
-54.32513655657317
 30
0.0
 10
786.6846215942503
 20
-54.18555485915139
 30
0.0
 10
786.3880265908848
 20
-53.9213863317562
 30
0.0
 10
786.2152452123482
 20
-53.79602515450804
 30
0.0
 10
785.8376575441106
 20
-53.57111553602933
 30
0.0
 10
785.6318147737192
 20
-53.47022269489238
 30
0.0
 10
785.1854263647748
 20
-53.29208693695159
 30
0.0
 10
784.9468064555604
 20
-53.21602410818449
 30
0.0
 10
784.4547351923567
 20
-53.09425652032768
 30
0.0
 10
784.1979829394106
 20
-53.04751589645446
 30
0.0
 10
783.6693790528765
 20
-52.98471786214665
 30
0.0
 10
783.403993066935
 20
-52.96927125537121
 30
0.0
 10
783.1374964584911
 20
-52.96927149454378
 30
0.0
  0
SPLINE
  5
12C
330
1F
100
AcDbEntity
  8
0
  6
Continuous
 62
     7
370
    25
100
AcDbSpline
210
0.0
220
0.0
230
1.0
 70
     8
 71
     3
 72
    36
 73
    32
 74
     0
 42
0.00000001
 43
0.00000001
 40
0.0
 40
0.0
 40
0.0
 40
0.0
 40
0.0625
 40
0.0625
 40
0.125
 40
0.125
 40
0.1875
 40
0.1875
 40
0.25
 40
0.25
 40
0.3125
 40
0.3125
 40
0.375
 40
0.375
 40
0.4375
 40
0.4375
 40
0.5
 40
0.5
 40
0.5625
 40
0.5625
 40
0.625
 40
0.625
 40
0.6875
 40
0.6875
 40
0.75
 40
0.75
 40
0.8125
 40
0.8125
 40
0.875
 40
0.875
 40
1.0
 40
1.0
 40
1.0
 40
1.0
 10
783.1374964584911
 20
-52.96927149454378
 30
0.0
 10
782.8709998500469
 20
-52.96927173371696
 30
0.0
 10
782.600457300122
 20
-52.98519698167087
 30
0.0
 10
782.0756879188579
 20
-53.04780812569526
 30
0.0
 10
781.8209093622904
 20
-53.09407297652252
 30
0.0
 10
781.3265602110707
 20
-53.21644887286892
 30
0.0
 10
781.0868528003573
 20
-53.29311153281763
 30
0.0
 10
780.6437835858799
 20
-53.47003971872105
 30
0.0
 10
780.4375323085528
 20
-53.57088527328868
 30
0.0
 10
780.0565445837478
 20
-53.7980469682679
 30
0.0
 10
779.8864854360381
 20
-53.92180250508449
 30
0.0
 10
779.5906640520539
 20
-54.18530628307649
 30
0.0
 10
779.4630764746082
 20
-54.3270145395664
 30
0.0
 10
779.2577834628527
 20
-54.62158900419634
 30
0.0
 10
779.1806324663988
 20
-54.77278697904781
 30
0.0
 10
779.0764017410103
 20
-55.08279365559898
 30
0.0
 10
779.0497089918792
 20
-55.24307101096654
 30
0.0
 10
779.0498392067375
 20
-55.55847904650246
 30
0.0
 10
779.0757968705362
 20
-55.71485296031481
 30
0.0
 10
779.180233892221
 20
-56.0248938665825
 30
0.0
 10
779.2589373732682
 20
-56.17732983358853
 30
0.0
 10
779.4626505662304
 20
-56.46650591234209
 30
0.0
 10
779.5885423891143
 20
-56.60523804389766
 30
0.0
 10
779.8880605323296
 20
-56.86820772807128
 30
0.0
 10
780.0574065535251
 20
-56.98885639523521
 30
0.0
 10
780.4339356518689
 20
-57.20940983840666
 30
0.0
 10
780.6437507594471
 20
-57.31021783215584
 30
0.0
 10
781.088856522679
 20
-57.48397468100508
 30
0.0
 10
781.3236185753956
 20
-57.55725725053501
 30
0.0
 10
782.0644034754375
 20
-57.73662305872146
 30
0.0
 10
782.6082658142366
 20
-57.7994410931742
 30
0.0
 10
783.141817098644
 20
-57.79911300152057
 30
0.0
  0
SPLINE
  5
12D
330
1F
100
AcDbEntity
  8
0
  6
Continuous
 62
     7
370
    25
100
AcDbSpline
210
0.0
220
0.0
230
1.0
 70
     8
 71
     3
 72
    38
 73
    34
 74
     0
 42
0.00000001
 43
0.00000001
 40
0.0
 40
0.0
 40
0.0
 40
0.0
 40
0.0625
 40
0.0625
 40
0.125
 40
0.125
 40
0.1875
 40
0.1875
 40
0.25
 40
0.25
 40
0.3125
 40
0.3125
 40
0.375
 40
0.375
 40
0.4375
 40
0.4375
 40
0.5
 40
0.5
 40
0.5625
 40
0.5625
 40
0.625
 40
0.625
 40
0.6875
 40
0.6875
 40
0.75
 40
0.75
 40
0.8125
 40
0.8125
 40
0.875
 40
0.875
 40
0.9375
 40
0.9375
 40
1.0
 40
1.0
 40
1.0
 40
1.0
 10
808.786212983605
 20
-32.6367374085319
 30
0.0
 10
808.5204268728612
 20
-32.6369249059894
 30
0.0
 10
808.256279316814
 20
-32.65431976250738
 30
0.0
 10
807.7313304599639
 20
-32.72421091734101
 30
0.0
 10
807.4741027920654
 20
-32.77657012418428
 30
0.0
 10
806.9843192106089
 20
-32.91211167149704
 30
0.0
 10
806.7480140843385
 20
-32.99622363124338
 30
0.0
 10
806.3028954845407
 20
-33.1945014600607
 30
0.0
 10
806.0980923687453
 20
-33.30658562176675
 30
0.0
 10
805.7231797209879
 20
-33.55563599363676
 30
0.0
 10
805.5516167382428
 20
-33.69432488140628
 30
0.0
 10
805.2566138820496
 20
-33.98704207062436
 30
0.0
 10
805.1319116800036
 20
-34.14134502214788
 30
0.0
 10
804.9282771115656
 20
-34.46576866848022
 30
0.0
 10
804.8501246133991
 20
-34.63593117726788
 30
0.0
 10
804.7470629210842
 20
-34.97744867890917
 30
0.0
 10
804.7208461122458
 20
-35.15059279771976
 30
0.0
 10
804.7209399635244
 20
-35.50192337463087
 30
0.0
 10
804.7473971396525
 20
-35.67515747746491
 30
0.0
 10
804.8507565394632
 20
-36.01429980131382
 30
0.0
 10
804.9287968924094
 20
-36.18230910494358
 30
0.0
 10
805.1332161763606
 20
-36.50320204003499
 30
0.0
 10
805.2582509882778
 20
-36.65503758441202
 30
0.0
 10
805.553328372491
 20
-36.94183381919813
 30
0.0
 10
805.7252679093992
 20
-37.07762397340497
 30
0.0
 10
806.101093608847
 20
-37.32084169622163
 30
0.0
 10
806.3060141045027
 20
-37.42973529138987
 30
0.0
 10
806.7504933326992
 20
-37.62177377885784
 30
0.0
 10
806.9881417646553
 20
-37.70364697882533
 30
0.0
 10
807.4782546853555
 20
-37.83461817015099
 30
0.0
 10
807.7340214279772
 20
-37.88483576178547
 30
0.0
 10
808.260620694622
 20
-37.95228661005817
 30
0.0
 10
808.5250135395311
 20
-37.96886623504181
 30
0.0
 10
808.790523059981
 20
-37.96886597069782
 30
0.0
  0
SPLINE
  5
12E
330
1F
100
AcDbEntity
  8
0
  6
Continuous
 62
     7
370
    25
100
AcDbSpline
210
0.0
220
0.0
230
1.0
 70
     8
 71
     3
 72
    36
 73
    32
 74
     0
 42
0.00000001
 43
0.00000001
 40
0.0
 40
0.0
 40
0.0
 40
0.0
 40
0.0625
 40
0.0625
 40
0.125
 40
0.125
 40
0.1875
 40
0.1875
 40
0.25
 40
0.25
 40
0.3125
 40
0.3125
 40
0.375
 40
0.375
 40
0.4375
 40
0.4375
 40
0.5
 40
0.5
 40
0.5625
 40
0.5625
 40
0.625
 40
0.625
 40
0.6875
 40
0.6875
 40
0.75
 40
0.75
 40
0.8125
 40
0.8125
 40
0.875
 40
0.875
 40
1.0
 40
1.0
 40
1.0
 40
1.0
 10
808.790523059981
 20
-37.96886597069782
 30
0.0
 10
809.0560325804327
 20
-37.96886570635599
 30
0.0
 10
809.3255854130165
 20
-37.95176975495507
 30
0.0
 10
809.8483439466922
 20
-37.88452087496602
 30
0.0
 10
810.1021433591645
 20
-37.83481691247542
 30
0.0
 10
810.5945834102083
 20
-37.70317267788281
 30
0.0
 10
810.8332798045781
 20
-37.6206602624865
 30
0.0
 10
811.2744480013115
 20
-37.42992260285716
 30
0.0
 10
811.4798547552878
 20
-37.32103838219897
 30
0.0
 10
811.8590526400404
 20
-37.07537035134328
 30
0.0
 10
812.0282345051963
 20
-36.94135088097988
 30
0.0
 10
812.3225527765078
 20
-36.65525380262369
 30
0.0
 10
812.4495057894853
 20
-36.50100718848292
 30
0.0
 10
812.6535492465888
 20
-36.17982614434562
 30
0.0
 10
812.7302452835268
 20
-36.01450860200139
 30
0.0
 10
812.8338015164389
 20
-35.67459345720803
 30
0.0
 10
812.8602745781342
 20
-35.49840454894554
 30
0.0
 10
812.8600308542512
 20
-35.1506980910018
 30
0.0
 10
812.8341702548429
 20
-34.97777676831615
 30
0.0
 10
812.7302138114461
 20
-34.63387930290895
 30
0.0
 10
812.6519332749181
 20
-34.46434008302063
 30
0.0
 10
812.4492999036139
 20
-34.1417060806285
 30
0.0
 10
812.324037916788
 20
-33.98639030000089
 30
0.0
 10
812.0261213774353
 20
-33.69130624723721
 30
0.0
 10
811.8576430157285
 20
-33.55547820309274
 30
0.0
 10
811.4829759858413
 20
-33.30660979653671
 30
0.0
 10
811.2741551971525
 20
-33.19253191956745
 30
0.0
 10
810.8310628290604
 20
-32.99553885116791
 30
0.0
 10
810.5973251344924
 20
-32.91225640261669
 30
0.0
 10
809.85963061539
 20
-32.70817108272867
 30
0.0
 10
809.3177852050935
 20
-32.63636241361756
 30
0.0
 10
808.786212983605
 20
-32.6367374085319
 30
0.0
  0
SPLINE
  5
12F
330
1F
100
AcDbEntity
  8
0
  6
Continuous
 62
     7
370
    25
100
AcDbSpline
210
0.0
220
0.0
230
1.0
 70
     8
 71
     3
 72
    31
 73
    27
 74
     0
 42
0.00000001
 43
0.00000001
 40
0.0
 40
0.0
 40
0.0
 40
0.0
 40
0.0156024118177359
 40
0.031177988026097
 40
0.0467643957657649
 40
0.0623992779416408
 40
0.0936903912324328
 40
0.1250250348878445
 40
0.1562975904069765
 40
0.1876121910705419
 40
0.2499705592058906
 40
0.3126191164999357
 40
0.3749148801865826
 40
0.4375608074760599
 40
0.4999773323833782
 40
0.5624749251440784
 40
0.6250816045458467
 40
0.6873936949188428
 40
0.7500506070720895
 40
0.8123572524923232
 40
0.8436668150575319
 40
0.8750031704632777
 40
0.906268544016812
 40
0.937562150021149
 40
0.968773343384864
 40
0.9999999999999999
 40
0.9999999999999999
 40
0.9999999999999999
 40
0.9999999999999999
 10
-783.1418170987074
 20
-57.79911300153007
 30
0.0
 10
-783.2085427010409
 20
-57.79853020017972
 30
0.0
 10
-783.3418791399768
 20
-57.79736559987714
 30
0.0
 10
-783.541379737103
 20
-57.78838036834677
 30
0.0
 10
-783.7400487677431
 20
-57.77408371408049
 30
0.0
 10
-784.0034737191793
 20
-57.74730147785717
 30
0.0
 10
-784.3286412943053
 20
-57.69978923241009
 30
0.0
 10
-784.7070938163613
 20
-57.62054170761499
 30
0.0
 10
-785.0706172010536
 20
-57.52008743590037
 30
0.0
 10
-785.5290857590451
 20
-57.35924877616405
 30
0.0
 10
-786.0489789295053
 20
-57.10958904389263
 30
0.0
 10
-786.5594918164105
 20
-56.74462331160546
 30
0.0
 10
-786.9393522489893
 20
-56.32682681958834
 30
0.0
 10
-787.1728650491281
 20
-55.87300215060315
 30
0.0
 10
-787.2515168805555
 20
-55.39937167469211
 30
0.0
 10
-787.1722364488152
 20
-54.92459721753929
 30
0.0
 10
-786.9379360679025
 20
-54.46714590943219
 30
0.0
 10
-786.5573950601179
 20
-54.04417833255787
 30
0.0
 10
-786.0462404095883
 20
-53.67320997975195
 30
0.0
 10
-785.5260242800609
 20
-53.41864015080949
 30
0.0
 10
-785.0672297979611
 20
-53.25429065346749
 30
0.0
 10
-784.7035507114307
 20
-53.15162222088276
 30
0.0
 10
-784.3249385766637
 20
-53.070494893035
 30
0.0
 10
-783.9352970881648
 20
-53.01261676046298
 30
0.0
 10
-783.5381968187048
 20
-52.97600653821382
 30
0.0
 10
-783.2710852960658
 20
-52.97151687974056
 30
0.0
 10
-783.1374964585542
 20
-52.96927149455333
 30
0.0
  0
SPLINE
  5
130
330
1F
100
AcDbEntity
  8
0
  6
Continuous
 62
     7
370
    25
100
AcDbSpline
210
0.0
220
0.0
230
1.0
 70
     8
 71
     3
 72
    31
 73
    27
 74
     0
 42
0.00000001
 43
0.00000001
 40
0.0
 40
0.0
 40
0.0
 40
0.0
 40
0.0156822152542055
 40
0.0313295238253369
 40
0.0469800193417924
 40
0.0626717505661035
 40
0.0938143530191453
 40
0.1249728246519381
 40
0.156301265926292
 40
0.187634295723894
 40
0.2499655763242397
 40
0.3124287328753025
 40
0.3749745186165374
 40
0.4372604866894107
 40
0.4998906162428755
 40
0.5621690918902335
 40
0.6247373170156679
 40
0.687183336444195
 40
0.7495473218201911
 40
0.8121309860723938
 40
0.8432915589789903
 40
0.8744383092593908
 40
0.9058434752425344
 40
0.9372474566722923
 40
0.9686103146296154
 40
0.9999999999999999
 40
0.9999999999999999
 40
0.9999999999999999
 40
0.9999999999999999
 10
-783.1374964585542
 20
-52.96927149455333
 30
0.0
 10
-783.0703835318528
 20
-52.9698380089022
 30
0.0
 10
-782.9363070635742
 20
-52.97096977660859
 30
0.0
 10
-782.7357402811305
 20
-52.98016671037353
 30
0.0
 10
-782.5361060985938
 20
-52.99486326077446
 30
0.0
 10
-782.272605878104
 20
-53.02233176874327
 30
0.0
 10
-781.9483066658042
 20
-53.07090386095076
 30
0.0
 10
-781.5705730041956
 20
-53.1518305360647
 30
0.0
 10
-781.2070229199159
 20
-53.25452346131576
 30
0.0
 10
-780.7478385191234
 20
-53.41909447385462
 30
0.0
 10
-780.227924177782
 20
-53.67373620316024
 30
0.0
 10
-779.7164463764901
 20
-54.04514678011157
 30
0.0
 10
-779.3365294877799
 20
-54.46790415104397
 30
0.0
 10
-779.1023977429013
 20
-54.92580045231293
 30
0.0
 10
-779.0234412902697
 20
-55.4001045270947
 30
0.0
 10
-779.102457785863
 20
-55.87380738181474
 30
0.0
 10
-779.3362114059319
 20
-56.32774211845643
 30
0.0
 10
-779.7162541841211
 20
-56.74526118139694
 30
0.0
 10
-780.2275663540631
 20
-57.11050698372649
 30
0.0
 10
-780.7473193669958
 20
-57.35988027542949
 30
0.0
 10
-781.2060701116118
 20
-57.52058482675088
 30
0.0
 10
-781.5690610726733
 20
-57.62080584823654
 30
0.0
 10
-781.948060025454
 20
-57.7001828606391
 30
0.0
 10
-782.3395988825332
 20
-57.75692736434473
 30
0.0
 10
-782.7387899643848
 20
-57.79271276009473
 30
0.0
 10
-783.0074364374776
 20
-57.79697897976616
 30
0.0
 10
-783.1418170987074
 20
-57.79911300153007
 30
0.0
  0
SPLINE
  5
131
330
1F
100
AcDbEntity
  8
0
  6
Continuous
 62
     7
370
    25
100
AcDbSpline
210
0.0
220
0.0
230
1.0
 70
     8
 71
     3
 72
    31
 73
    27
 74
     0
 42
0.00000001
 43
0.00000001
 40
0.0
 40
0.0
 40
0.0
 40
0.0
 40
0.0155972667777894
 40
0.0311701488331839
 40
0.0467565541363791
 40
0.06239442616495
 40
0.0936663477565783
 40
0.1250142103079536
 40
0.1562673794964635
 40
0.1876047029875808
 40
0.2499618251907082
 40
0.3126169966056323
 40
0.374921423101492
 40
0.4375717392267687
 40
0.5000007748756212
 40
0.5624977123680484
 40
0.625109113907594
 40
0.6874195839727241
 40
0.7500747012053105
 40
0.8123762624168763
 40
0.8436701822926023
 40
0.8750168355311918
 40
0.9062705539611293
 40
0.9375692715243806
 40
0.9687744749674081
 40
1.0
 40
1.0
 40
1.0
 40
1.0
 10
-808.7862129836691
 20
-32.63673740854217
 30
0.0
 10
-808.7197502683698
 20
-32.63740253725794
 30
0.0
 10
-808.5869287453908
 20
-32.63873175482917
 30
0.0
 10
-808.3881848879637
 20
-32.64898499293095
 30
0.0
 10
-808.1902407154887
 20
-32.66529859951672
 30
0.0
 10
-807.927859041387
 20
-32.69584668936215
 30
0.0
 10
-807.6039354105578
 20
-32.75001997868087
 30
0.0
 10
-807.2270778702601
 20
-32.84024663926017
 30
0.0
 10
-806.8649978402456
 20
-32.95449250695942
 30
0.0
 10
-806.4085329469381
 20
-33.13705766115632
 30
0.0
 10
-805.8910319494635
 20
-33.41963910652457
 30
0.0
 10
-805.3831523754782
 20
-33.83051880709326
 30
0.0
 10
-805.0053453233115
 20
-34.29814935037356
 30
0.0
 10
-804.7730736703933
 20
-34.80303350044611
 30
0.0
 10
-804.6947484205746
 20
-35.3267286632824
 30
0.0
 10
-804.7734317265391
 20
-35.84862599954513
 30
0.0
 10
-805.0063060283891
 20
-36.34870905943288
 30
0.0
 10
-805.3847862456711
 20
-36.80882827426785
 30
0.0
 10
-805.8934288689247
 20
-37.21064287867731
 30
0.0
 10
-806.4112876197847
 20
-37.48538435792131
 30
0.0
 10
-806.8681565273619
 20
-37.66243895900756
 30
0.0
 10
-807.230334914091
 20
-37.77290850650966
 30
0.0
 10
-807.6075160501379
 20
-37.86014148769718
 30
0.0
 10
-807.9956603532021
 20
-37.92231865404933
 30
0.0
 10
-808.3913044091615
 20
-37.96163508288824
 30
0.0
 10
-808.657421302183
 20
-37.9664551517806
 30
0.0
 10
-808.7905230600444
 20
-37.96886597070792
 30
0.0
  0
SPLINE
  5
132
330
1F
100
AcDbEntity
  8
0
  6
Continuous
 62
     7
370
    25
100
AcDbSpline
210
0.0
220
0.0
230
1.0
 70
     8
 71
     3
 72
    31
 73
    27
 74
     0
 42
0.00000001
 43
0.00000001
 40
0.0
 40
0.0
 40
0.0
 40
0.0
 40
0.0156840319626449
 40
0.0313308508292208
 40
0.0469786774243854
 40
0.0626656494636035
 40
0.093815950948887
 40
0.1249616940625319
 40
0.1563001331292039
 40
0.1876172857278965
 40
0.2499515602775618
 40
0.31240884584524
 40
0.3749614257233354
 40
0.4372491028207738
 40
0.4998856910687394
 40
0.5621737631312265
 40
0.624745975261898
 40
0.687200254358332
 40
0.7495643028281456
 40
0.8121479079731901
 40
0.8433307242781143
 40
0.8744502672735611
 40
0.9058706879540267
 40
0.937253579506064
 40
0.9686206000988283
 40
1.0
 40
1.0
 40
1.0
 40
1.0
 10
-808.7905230600444
 20
-37.96886597070792
 30
0.0
 10
-808.857401414684
 20
-37.96825771350143
 30
0.0
 10
-808.9909994434247
 20
-37.96704264228451
 30
0.0
 10
-809.1908345973776
 20
-37.95716689436834
 30
0.0
 10
-809.3897090860766
 20
-37.94138502359579
 30
0.0
 10
-809.6522446254986
 20
-37.91187780682631
 30
0.0
 10
-809.9752992549851
 20
-37.85969413627244
 30
0.0
 10
-810.3516104490352
 20
-37.7726759355474
 30
0.0
 10
-810.7136525356525
 20
-37.66217916933723
 30
0.0
 10
-811.1709356756814
 20
-37.48487289402364
 30
0.0
 10
-811.6884991217496
 20
-37.21003812232554
 30
0.0
 10
-812.1974804271698
 20
-36.80770694388874
 30
0.0
 10
-812.5753198770956
 20
-36.34779922719905
 30
0.0
 10
-812.80800998391
 20
-35.84718305346895
 30
0.0
 10
-812.8863338005309
 20
-35.32579092900662
 30
0.0
 10
-812.8076008797947
 20
-34.8020005076406
 30
0.0
 10
-812.575056205547
 20
-34.29700740359648
 30
0.0
 10
-812.1970483016797
 20
-33.82970943253999
 30
0.0
 10
-811.6883647506355
 20
-33.41853728171679
 30
0.0
 10
-811.1710121565764
 20
-33.13629271772272
 30
0.0
 10
-810.7142764552511
 20
-32.95390429727784
 30
0.0
 10
-810.3527519409286
 20
-32.83992974105698
 30
0.0
 10
-809.9753795210419
 20
-32.74956319707661
 30
0.0
 10
-809.5853287573907
 20
-32.68486559557748
 30
0.0
 10
-809.187715453249
 20
-32.6440444629233
 30
0.0
 10
-808.920064741894
 20
-32.63917341367406
 30
0.0
 10
-808.7862129836691
 20
-32.63673740854217
 30
0.0
  0
SPLINE
  5
133
330
1F
100
AcDbEntity
  8
0
  6
Continuous
 62
     7
370
    25
100
AcDbSpline
210
0.0
220
0.0
230
1.0
 70
     8
 71
     3
 72
    26
 73
    22
 74
     0
 42
0.00000001
 43
0.00000001
 40
0.0
 40
0.0
 40
0.0
 40
0.0
 40
0.0224332283274294
 40
0.0454355808398373
 40
0.0690077304917817
 40
0.0931503025899701
 40
0.1178638791423995
 40
0.1431490027272949
 40
0.1690061799434579
 40
0.1954358844947153
 40
0.2224385599536286
 40
0.2500146222433408
 40
0.3729316840335255
 40
0.5000109785492088
 40
0.6265733270061127
 40
0.7500162729194475
 40
0.8038994316454617
 40
0.8558360880803952
 40
0.9058293434683479
 40
0.9538826753218936
 40
1.0
 40
1.0
 40
1.0
 40
1.0
 10
827.8870951948304
 20
-30.80981970873087
 30
0.0
 10
827.5570203471699
 20
-31.10983962790109
 30
0.0
 10
826.8884967532769
 20
-31.7174908804117
 30
0.0
 10
825.8685142621723
 20
-32.63015030952238
 30
0.0
 10
824.8200808009316
 20
-33.5582427046961
 30
0.0
 10
823.7428355143113
 20
-34.50097722496736
 30
0.0
 10
822.636878350568
 20
-35.45857342621761
 30
0.0
 10
821.5021812931759
 20
-36.4309701866411
 30
0.0
 10
820.3387517877576
 20
-37.41818424277027
 30
0.0
 10
819.1465878021087
 20
-38.42021098878973
 30
0.0
 10
817.9256886637357
 20
-39.43705079912274
 30
0.0
 10
815.2445820120918
 20
-41.65048811430216
 30
0.0
 10
811.027416381155
 20
-45.05278613211272
 30
0.0
 10
805.2582070219077
 20
-49.54667807398378
 30
0.0
 10
799.4376566302456
 20
-53.93386773082498
 30
0.0
 10
794.710803785142
 20
-57.37202808486425
 30
0.0
 10
791.1245278814102
 20
-59.90913793218367
 30
0.0
 10
788.678266775816
 20
-61.60798334531636
 30
0.0
 10
786.3141250444721
 20
-63.21585152241443
 30
0.0
 10
784.0331296658119
 20
-64.73596066066195
 30
0.0
 10
782.5347293026985
 20
-65.70320269884795
 30
0.0
 10
781.8009315509508
 20
-66.17688119659043
 30
0.0
  0
SPLINE
  5
134
330
1F
100
AcDbEntity
  8
0
  6
Continuous
 62
     7
370
    25
100
AcDbSpline
210
0.0
220
0.0
230
1.0
 70
     8
 71
     3
 72
    27
 73
    23
 74
     0
 42
0.00000001
 43
0.00000001
 40
0.0
 40
0.0
 40
0.0
 40
0.0
 40
0.022919710840152
 40
0.0468817359583094
 40
0.0718856040467489
 40
0.0979287618590534
 40
0.1250064777857539
 40
0.1846333541384528
 40
0.2500133286431506
 40
0.3094059847158769
 40
0.3750188917100911
 40
0.4321434367149954
 40
0.500010739885076
 40
0.5625115502235505
 40
0.6250161944343522
 40
0.6936105973307972
 40
0.7500170584383121
 40
0.8161315906799022
 40
0.8749974795758864
 40
0.9196797058445478
 40
0.9613412369629918
 40
1.0
 40
1.0
 40
1.0
 40
1.0
 10
-827.8870951948945
 20
-30.80981970874147
 30
0.0
 10
-827.5498229903817
 20
-31.11629399146759
 30
0.0
 10
-826.859940532949
 20
-31.74318001550969
 30
0.0
 10
-825.7970384407565
 20
-32.69324427605314
 30
0.0
 10
-824.6845481015258
 20
-33.67670685367519
 30
0.0
 10
-823.5220492032374
 20
-34.69221280030654
 30
0.0
 10
-821.8391596220234
 20
-36.14580110882581
 30
0.0
 10
-819.5579988026072
 20
-38.08166057593709
 30
0.0
 10
-816.7772773523399
 20
-40.39176448064341
 30
0.0
 10
-813.8912387083961
 20
-42.74186412975384
 30
0.0
 10
-811.1190897400851
 20
-44.95992155033274
 30
0.0
 10
-808.2043839368228
 20
-47.2505767957081
 30
0.0
 10
-805.3275704229117
 20
-49.47572869360501
 30
0.0
 10
-802.3559214024551
 20
-51.73390673458661
 30
0.0
 10
-799.3618216904487
 20
-53.97090652426323
 30
0.0
 10
-796.4512408366344
 20
-56.10683259485349
 30
0.0
 10
-793.4712710524866
 20
-58.251118424483
 30
0.0
 10
-790.6333423577075
 20
-60.25520854873384
 30
0.0
 10
-787.965895681024
 20
-62.09566017117252
 30
0.0
 10
-785.6742926766528
 20
-63.64356159196289
 30
0.0
 10
-783.694585032053
 20
-64.95600303282639
 30
0.0
 10
-782.4162188370727
 20
-65.78019256295109
 30
0.0
 10
-781.800931551015
 20
-66.17688119659843
 30
0.0
  0
SPLINE
  5
135
330
1F
100
AcDbEntity
  8
0
  6
Continuous
 62
     7
370
    25
100
AcDbSpline
210
0.0
220
0.0
230
1.0
 70
     8
 71
     3
 72
    13
 73
     9
 74
     0
 42
0.00000001
 43
0.00000001
 40
0.0
 40
0.0
 40
0.0
 40
0.0
 40
0.1622760475892448
 40
0.329733307646257
 40
0.4973321366755251
 40
0.6649599753889858
 40
0.8337595999713642
 40
1.0
 40
1.0
 40
1.0
 40
1.0
 10
-811.5426550620151
 20
-33.37424616552015
 30
0.0
 10
-811.8467528706849
 20
-33.63018805807222
 30
0.0
 10
-812.4646578405819
 20
-34.15024365500202
 30
0.0
 10
-812.7348560603522
 20
-35.15070143804028
 30
0.0
 10
-812.4418346986291
 20
-36.13620221290531
 30
0.0
 10
-811.5820851505072
 20
-36.96692925729367
 30
0.0
 10
-810.2989141474603
 20
-37.542107396201
 30
0.0
 10
-809.2907531217949
 20
-37.61645198430136
 30
0.0
 10
-808.790523060045
 20
-37.6533403354174
 30
0.0
  0
SPLINE
  5
137
330
1F
100
AcDbEntity
  8
0
  6
Continuous
 62
     7
370
    25
100
AcDbSpline
210
0.0
220
0.0
230
1.0
 70
     8
 71
     3
 72
    13
 73
     9
 74
     0
 42
0.00000001
 43
0.00000001
 40
0.0
 40
0.0
 40
0.0
 40
0.0
 40
0.1661555867434106
 40
0.3348744181778963
 40
0.502419500317003
 40
0.6701282494175281
 40
0.8377970388031636
 40
1.0
 40
1.0
 40
1.0
 40
1.0
 10
-808.790523060045
 20
-37.6533403354174
 30
0.0
 10
-808.290479583832
 20
-37.61647852664785
 30
0.0
 10
-807.282678573692
 20
-37.54218625031447
 30
0.0
 10
-805.9998008562457
 20
-36.96742341855497
 30
0.0
 10
-805.1395824295023
 20
-36.13681660035417
 30
0.0
 10
-804.845986245101
 20
-35.15080048160129
 30
0.0
 10
-805.1165492840355
 20
-34.14957977486627
 30
0.0
 10
-805.7353025113681
 20
-33.62948227306784
 30
0.0
 10
-806.0395528921485
 20
-33.37374241430807
 30
0.0
  0
SPLINE
  5
139
330
1F
100
AcDbEntity
  8
0
  6
Continuous
 62
     7
370
    25
100
AcDbSpline
210
0.0
220
0.0
230
1.0
 70
     8
 71
     3
 72
    13
 73
     9
 74
     0
 42
0.00000001
 43
0.00000001
 40
0.0
 40
0.0
 40
0.0
 40
0.0
 40
0.1622734863858754
 40
0.3297311590520914
 40
0.4972754905595768
 40
0.664958600802526
 40
0.8325479762471246
 40
1.0
 40
1.0
 40
1.0
 40
1.0
 10
811.5426353993051
 20
-33.37423741693535
 30
0.0
 10
811.8467342860491
 20
-33.63017270095764
 30
0.0
 10
812.4646471726568
 20
-34.15021968905485
 30
0.0
 10
812.7348201245563
 20
-35.15058178635994
 30
0.0
 10
812.4419344672413
 20
-36.13603220688349
 30
0.0
 10
811.5842368673667
 20
-36.96484675554079
 30
0.0
 10
810.3027641853566
 20
-37.54114081260196
 30
0.0
 10
809.2944656496364
 20
-37.61595071736185
 30
0.0
 10
808.790523059981
 20
-37.6533403354174
 30
0.0
  0
SPLINE
  5
13A
330
1F
100
AcDbEntity
  8
0
  6
Continuous
 62
     7
370
    25
100
AcDbSpline
210
0.0
220
0.0
230
1.0
 70
     8
 71
     3
 72
    13
 73
     9
 74
     0
 42
0.00000001
 43
0.00000001
 40
0.0
 40
0.0
 40
0.0
 40
0.0
 40
0.1674268513585167
 40
0.3348747593686028
 40
0.5024197555617191
 40
0.6701284186324967
 40
0.83779712200916
 40
1.0
 40
1.0
 40
1.0
 40
1.0
 10
808.790523059981
 20
-37.6533403354174
 30
0.0
 10
808.2865850989594
 20
-37.615952852455
 30
0.0
 10
807.2786457985159
 20
-37.54117318444572
 30
0.0
 10
805.9977007509132
 20
-36.96529578625968
 30
0.0
 10
805.1395639060926
 20
-36.13682549003228
 30
0.0
 10
804.8459911907817
 20
-35.15079810804983
 30
0.0
 10
805.116548094568
 20
-34.149580345681
 30
0.0
 10
805.7353021192404
 20
-33.6294824612256
 30
0.0
 10
806.0395528920845
 20
-33.3737424143083
 30
0.0
  0
LWPOLYLINE
  5
141
330
1F
100
AcDbEntity
  8
0
  6
Continuous
 62
     7
370
    25
100
AcDbPolyline
 90
        5
 70
   128
 43
0.0
 10
-808.79052306
 20
-34.492849839
 10
-809.6515607829
 20
-34.3885866287
 10
-810.3815133177
 20
-34.0916701265
 10
-810.8692520082
 20
-33.6473031783
 10
-811.04052306
 20
-33.1231366237
  0
LWPOLYLINE
  5
142
330
1F
100
AcDbEntity
  8
0
  6
Continuous
 62
     7
370
    25
100
AcDbPolyline
 90
        5
 70
   128
 43
0.0
 10
-806.54052306
 20
-33.1231366237
 10
-806.7117941119
 20
-33.6473031783
 10
-807.1995328024
 20
-34.0916701265
 10
-807.9294853372
 20
-34.3885866287
 10
-808.79052306
 20
-34.492849839
  0
LWPOLYLINE
  5
143
330
1F
100
AcDbEntity
  8
0
  6
Continuous
 62
     7
370
    25
100
AcDbPolyline
 90
        5
 70
   128
 43
0.0
 10
808.79052306
 20
-34.492849839
 10
809.6515607828
 20
-34.3885866287
 10
810.3815133177
 20
-34.0916701265
 10
810.8692520081
 20
-33.6473031783
 10
811.04052306
 20
-33.1231366237
  0
LWPOLYLINE
  5
144
330
1F
100
AcDbEntity
  8
0
  6
Continuous
 62
     7
370
    25
100
AcDbPolyline
 90
        5
 70
   128
 43
0.0
 10
806.54052306
 20
-33.1231366237
 10
806.7117941118
 20
-33.6473031783
 10
807.1995328023
 20
-34.0916701265
 10
807.9294853372
 20
-34.3885866287
 10
808.79052306
 20
-34.492849839
  0
SPLINE
  5
145
330
1F
100
AcDbEntity
  8
0
  6
Continuous
 62
     7
370
    25
100
AcDbSpline
210
0.0
220
0.0
230
1.0
 70
     8
 71
     3
 72
    16
 73
    12
 74
     0
 42
0.00000001
 43
0.00000001
 40
0.0
 40
0.0
 40
0.0
 40
0.0
 40
0.0096418629924549
 40
0.168898778686465
 40
0.2531274702297203
 40
0.3401831616054798
 40
0.5050379823193475
 40
0.6697622067531875
 40
0.759227175883427
 40
0.8442005466705608
 40
1.0
 40
1.0
 40
1.0
 40
1.0
 10
-785.7855043066423
 20
-53.55912419963488
 30
0.0
 10
-785.8100101507281
 20
-53.5687348448477
 30
0.0
 10
-786.2392847774257
 20
-53.73708677435663
 30
0.0
 10
-786.616675131128
 20
-54.1760294591494
 30
0.0
 10
-786.9353938606158
 20
-54.73502114520068
 30
0.0
 10
-787.0387085878683
 20
-55.34143178381412
 30
0.0
 10
-786.788692672104
 20
-56.0896464862638
 30
0.0
 10
-786.0605336142296
 20
-56.72622460996008
 30
0.0
 10
-785.2532539837595
 20
-57.10377296453139
 30
0.0
 10
-784.3547893464785
 20
-57.38030044500009
 30
0.0
 10
-783.6181991490365
 20
-57.42524755668816
 30
0.0
 10
-783.1415658308439
 20
-57.45433196625743
 30
0.0
  0
SPLINE
  5
147
330
1F
100
AcDbEntity
  8
0
  6
Continuous
 62
     7
370
    25
100
AcDbSpline
210
0.0
220
0.0
230
1.0
 70
     8
 71
     3
 72
     8
 73
     4
 74
     0
 42
0.00000001
 43
0.00000001
 40
0.0
 40
0.0
 40
0.0
 40
0.0
 40
1.0
 40
1.0
 40
1.0
 40
1.0
 10
-783.1415658308439
 20
-57.45433196625732
 30
0.0
 10
-783.140209421458
 20
-57.45433279843448
 30
0.0
 10
-783.1388529637769
 20
-57.45433321566051
 30
0.0
 10
-783.137496458555
 20
-57.45433321314392
 30
0.0
  0
SPLINE
  5
148
330
1F
100
AcDbEntity
  8
0
  6
Continuous
 62
     7
370
    25
100
AcDbSpline
210
0.0
220
0.0
230
1.0
 70
     8
 71
     3
 72
    16
 73
    12
 74
     0
 42
0.00000001
 43
0.00000001
 40
0.0
 40
0.0
 40
0.0
 40
0.0
 40
0.1560450179813299
 40
0.24116844688436
 40
0.3308003302023241
 40
0.4953489865789505
 40
0.6599022951044885
 40
0.7468840090278759
 40
0.8310423250584613
 40
0.990170292361822
 40
0.9999999999999999
 40
0.9999999999999999
 40
0.9999999999999999
 40
0.9999999999999999
 10
-783.137496458555
 20
-57.45433321482818
 30
0.0
 10
-782.6597933386826
 20
-57.42541651926341
 30
0.0
 10
-781.9215004986945
 20
-57.38072560475288
 30
0.0
 10
-781.0209753328668
 20
-57.10356906243014
 30
0.0
 10
-780.2131999682522
 20
-56.7254395171396
 30
0.0
 10
-779.4858796902909
 20
-56.08875282021103
 30
0.0
 10
-779.2363731179872
 20
-55.3411492367592
 30
0.0
 10
-779.3395499487941
 20
-54.73522627968469
 30
0.0
 10
-779.6580320580982
 20
-54.17636034460688
 30
0.0
 10
-780.0355748395825
 20
-53.73726046188693
 30
0.0
 10
-780.4652336859538
 20
-53.56875457790822
 30
0.0
 10
-780.4902306021663
 20
-53.55895115480003
 30
0.0
  0
SPLINE
  5
149
330
1F
100
AcDbEntity
  8
0
  6
Continuous
 62
     7
370
    25
100
AcDbSpline
210
0.0
220
0.0
230
1.0
 70
     8
 71
     3
 72
    14
 73
    10
 74
     0
 42
0.00000001
 43
0.00000001
 40
0.0
 40
0.0
 40
0.0
 40
0.0
 40
0.0096324196975949
 40
0.1746890236608913
 40
0.3398984369269288
 40
0.505052904529051
 40
0.6700765384751775
 40
0.8350360345734982
 40
1.0
 40
1.0
 40
1.0
 40
1.0
 10
785.7855396782562
 20
-53.5593543350803
 30
0.0
 10
785.810026756336
 20
-53.56889391878644
 30
0.0
 10
786.2541128630819
 20
-53.74189931266132
 30
0.0
 10
786.7614795455712
 20
-54.32738655412722
 30
0.0
 10
787.0944817501863
 20
-55.19609527446545
 30
0.0
 10
786.7857457491045
 20
-56.09257073292812
 30
0.0
 10
785.9326092137279
 20
-56.83428127602813
 30
0.0
 10
784.6520053381721
 20
-57.35285634726217
 30
0.0
 10
783.6450502135037
 20
-57.42050645445018
 30
0.0
 10
783.14156583078
 20
-57.45433196625732
 30
0.0
  0
SPLINE
  5
14B
330
1F
100
AcDbEntity
  8
0
  6
Continuous
 62
     7
370
    25
100
AcDbSpline
210
0.0
220
0.0
230
1.0
 70
     8
 71
     3
 72
    14
 73
    10
 74
     0
 42
0.00000001
 43
0.00000001
 40
0.0
 40
0.0
 40
0.0
 40
0.0
 40
0.1656575481994983
 40
0.3305143353811811
 40
0.4953308986473908
 40
0.6601725389263604
 40
0.8251054059724323
 40
0.9901829134481703
 40
1.0
 40
1.0
 40
1.0
 40
1.0
 10
783.1374964584911
 20
-57.4543332131438
 30
0.0
 10
782.6315329884909
 20
-57.42049872855426
 30
0.0
 10
781.6220517916976
 20
-57.35299330964261
 30
0.0
 10
780.3404802928267
 20
-56.83309271065517
 30
0.0
 10
779.4888205222467
 20
-56.0916366707287
 30
0.0
 10
779.1807966850653
 20
-55.19616974699076
 30
0.0
 10
779.5130694229618
 20
-54.32796270286128
 30
0.0
 10
780.0203552904214
 20
-53.74220292072024
 30
0.0
 10
780.4652233256867
 20
-53.56891405383535
 30
0.0
 10
780.4901944120177
 20
-53.55918709907076
 30
0.0
  0
SPLINE
  5
14C
330
1F
100
AcDbEntity
  8
0
  6
Continuous
 62
     7
370
    25
100
AcDbSpline
210
0.0
220
0.0
230
1.0
 70
     8
 71
     3
 72
     8
 73
     4
 74
     0
 42
0.00000001
 43
0.00000001
 40
0.0
 40
0.0
 40
0.0
 40
0.0
 40
1.0
 40
1.0
 40
1.0
 40
1.0
 10
783.14156583078
 20
-57.45433196625732
 30
0.0
 10
783.14020941875
 20
-57.45433279747297
 30
0.0
 10
783.138852961325
 20
-57.45433321274967
 30
0.0
 10
783.1374964584911
 20
-57.4543332131438
 30
0.0
  0
LWPOLYLINE
  5
153
330
1F
100
AcDbEntity
  8
0
  6
Continuous
 62
     7
370
    25
100
AcDbPolyline
 90
        5
 70
   128
 43
0.0
 10
-783.1374964586
 20
-54.5659533187
 10
-783.9985341814
 20
-54.4616901084
 10
-784.7284867162
 20
-54.1647736062
 10
-785.2162254067
 20
-53.720406658
 10
-785.3874964586
 20
-53.1962401034
  0
LWPOLYLINE
  5
154
330
1F
100
AcDbEntity
  8
0
  6
Continuous
 62
     7
370
    25
100
AcDbPolyline
 90
        5
 70
   128
 43
0.0
 10
-780.8874964586
 20
-53.1962401034
 10
-781.0587675104
 20
-53.720406658
 10
-781.5465062009
 20
-54.1647736062
 10
-782.2764587357
 20
-54.4616901084
 10
-783.1374964586
 20
-54.5659533187
  0
LWPOLYLINE
  5
155
330
1F
100
AcDbEntity
  8
0
  6
Continuous
 62
     7
370
    25
100
AcDbPolyline
 90
        5
 70
   128
 43
0.0
 10
783.1374964585
 20
-54.5659533187
 10
783.9985341813
 20
-54.4616901084
 10
784.7284867162
 20
-54.1647736062
 10
785.2162254066
 20
-53.720406658
 10
785.3874964585
 20
-53.1962401034
  0
LWPOLYLINE
  5
156
330
1F
100
AcDbEntity
  8
0
  6
Continuous
 62
     7
370
    25
100
AcDbPolyline
 90
        5
 70
   128
 43
0.0
 10
780.8874964585
 20
-53.1962401034
 10
781.0587675103
 20
-53.720406658
 10
781.5465062008
 20
-54.1647736062
 10
782.2764587357
 20
-54.4616901084
 10
783.1374964585
 20
-54.5659533187
  0
SPLINE
  5
157
330
1F
100
AcDbEntity
  8
0
  6
Continuous
 62
     7
370
    25
100
AcDbSpline
210
0.0
220
0.0
230
1.0
 70
    24
 71
     3
 72
    14
 73
    10
 74
     0
 42
0.00000001
 43
0.00000001
 40
0.0
 40
0.0
 40
0.0
 40
0.0
 40
0.25
 40
0.25
 40
0.5
 40
0.5
 40
0.75
 40
0.75
 40
1.0
 40
1.0
 40
1.0
 40
1.0
 10
708.6091999999678
 20
-66.17688119286358
 30
0.0
 10
708.6091999999679
 20
-66.21566139027097
 30
0.0
 10
708.6091999999679
 20
-66.25507707818524
 30
0.0
 10
708.6091999999677
 20
-66.32651836864706
 30
0.0
 10
708.6091999999679
 20
-66.35764214239892
 30
0.0
 10
708.6091999999678
 20
-66.40144416384308
 30
0.0
 10
708.6091999999679
 20
-66.41436344922825
 30
0.0
 10
708.609199999968
 20
-66.42731584493472
 30
0.0
 10
708.6091999999679
 20
-66.42749999941039
 30
0.0
 10
708.6091999999678
 20
-66.42749999941039
 30
0.0
  0
SPLINE
  5
159
330
1F
100
AcDbEntity
  8
0
  6
Continuous
 62
     7
370
    25
100
AcDbSpline
210
0.0
220
0.0
230
1.0
 70
    24
 71
     3
 72
    10
 73
     6
 74
     0
 42
0.00000001
 43
0.00000001
 40
0.0
 40
0.0
 40
0.0
 40
0.0
 40
0.5
 40
0.5
 40
1.0
 40
1.0
 40
1.0
 40
1.0
 10
-708.609200000032
 20
-66.17688119286363
 30
0.0
 10
-708.6092000000322
 20
-66.27940055541953
 30
0.0
 10
-708.609200000032
 20
-66.34692763849309
 30
0.0
 10
-708.609200000032
 20
-66.41199724567554
 30
0.0
 10
-708.6092000000322
 20
-66.4274999994105
 30
0.0
 10
-708.609200000032
 20
-66.4274999994105
 30
0.0
  0
SPLINE
  5
15B
330
1F
100
AcDbEntity
  8
0
  6
Continuous
 62
     7
370
    25
100
AcDbSpline
210
0.0
220
0.0
230
1.0
 70
     8
 71
     3
 72
    14
 73
    10
 74
     0
 42
0.00000001
 43
0.00000001
 40
0.0
 40
0.0
 40
0.0
 40
0.0
 40
0.2021623727782753
 40
0.3884583589071979
 40
0.5545935166651935
 40
0.6994606521236576
 40
0.8220589349144426
 40
0.9218905516017762
 40
1.0
 40
1.0
 40
1.0
 40
1.0
 10
780.9448328915511
 20
-66.42749999941039
 30
0.0
 10
781.0054331756677
 20
-66.42742495818898
 30
0.0
 10
781.1218776286773
 20
-66.42728076523491
 30
0.0
 10
781.28062691307
 20
-66.40973674293605
 30
0.0
 10
781.4221326305554
 20
-66.37226975033423
 30
0.0
 10
781.5440765142806
 20
-66.32141195888502
 30
0.0
 10
781.6466753661069
 20
-66.26821405886896
 30
0.0
 10
781.7310508407999
 20
-66.22030433620085
 30
0.0
 10
781.7796141021036
 20
-66.19012763549247
 30
0.0
 10
781.8009315509512
 20
-66.17688119659049
 30
0.0
  0
SPLINE
  5
15D
330
1F
100
AcDbEntity
  8
0
  6
Continuous
 62
     7
370
    25
100
AcDbSpline
210
0.0
220
0.0
230
1.0
 70
     8
 71
     3
 72
    12
 73
     8
 74
     0
 42
0.00000001
 43
0.00000001
 40
0.0
 40
0.0
 40
0.0
 40
0.0
 40
0.1948315694335248
 40
0.3613129485746612
 40
0.5000656268484055
 40
0.7203331900616422
 40
1.0
 40
1.0
 40
1.0
 40
1.0
 10
-780.9448328916147
 20
-66.4274999994105
 30
0.0
 10
-781.0021980893011
 20
-66.42670391472333
 30
0.0
 10
-781.1085812015547
 20
-66.4252275846478
 30
0.0
 10
-781.2555189970607
 20
-66.41081868661647
 30
0.0
 10
-781.4090567191233
 20
-66.38141484476218
 30
0.0
 10
-781.5902171713223
 20
-66.30576158082874
 30
0.0
 10
-781.7253418525188
 20
-66.22311453577129
 30
0.0
 10
-781.8009315510146
 20
-66.17688119659054
 30
0.0
  0
SPLINE
  5
15F
330
1F
100
AcDbEntity
  8
0
  6
Continuous
 62
     7
370
    25
100
AcDbSpline
210
0.0
220
0.0
230
1.0
 70
     8
 71
     3
 72
    15
 73
    11
 74
     0
 42
0.00000001
 43
0.00000001
 40
0.0
 40
0.0
 40
0.0
 40
0.0
 40
0.116191613228334
 40
0.223044643494359
 40
0.3214519289362248
 40
0.4125549598277859
 40
0.4977891977007877
 40
0.6287098559020385
 40
0.795508163759415
 40
1.0
 40
1.0
 40
1.0
 40
1.0
 10
855.8164969303303
 20
-7.492491955587099
 30
0.0
 10
855.8245476311697
 20
-7.438801595852251
 30
0.0
 10
855.8400019797984
 20
-7.335736092126066
 30
0.0
 10
855.8728356420987
 20
-7.19096196922675
 30
0.0
 10
855.911839572969
 20
-7.062112524875486
 30
0.0
 10
855.9576514803592
 20
-6.949358057996347
 30
0.0
 10
856.0205322746383
 20
-6.834016333148951
 30
0.0
 10
856.1172366999623
 20
-6.714240846552144
 30
0.0
 10
856.2554411642516
 20
-6.579537578145834
 30
0.0
 10
856.363603173483
 20
-6.493736789873972
 30
0.0
 10
856.4231745039664
 20
-6.446481130052362
 30
0.0
  0
SPLINE
  5
160
330
1F
100
AcDbEntity
  8
0
  6
Continuous
 62
     7
370
    25
100
AcDbSpline
210
0.0
220
0.0
230
1.0
 70
     8
 71
     3
 72
     9
 73
     5
 74
     0
 42
0.00000001
 43
0.00000001
 40
0.0
 40
0.0
 40
0.0
 40
0.0
 40
0.3425211224507949
 40
0.9999999999999999
 40
0.9999999999999999
 40
0.9999999999999999
 40
0.9999999999999999
 10
853.7594996742451
 20
-18.80270892475555
 30
0.0
 10
853.4779920431433
 20
-20.12333939301714
 30
0.0
 10
852.6561226381635
 20
-23.9789569935091
 30
0.0
 10
851.5260360440627
 20
-27.67828740880185
 30
0.0
 10
850.7830279786399
 20
-30.1105190179321
 30
0.0
  0
SPLINE
  5
161
330
1F
100
AcDbEntity
  8
0
  6
Continuous
 62
     7
370
    25
100
AcDbSpline
210
0.0
220
0.0
230
1.0
 70
     8
 71
     3
 72
     9
 73
     5
 74
     0
 42
0.00000001
 43
0.00000001
 40
0.0
 40
0.0
 40
0.0
 40
0.0
 40
0.0442843469186124
 40
1.0
 40
1.0
 40
1.0
 40
1.0
 10
850.5936704521674
 20
-30.53054770433639
 30
0.0
 10
850.5978291948331
 20
-30.5260827364125
 30
0.0
 10
850.6917391868494
 20
-30.42525776699223
 30
0.0
 10
850.7384171339461
 20
-30.26432499102133
 30
0.0
 10
850.7830279786399
 20
-30.1105190179321
 30
0.0
  0
SPLINE
  5
162
330
1F
100
AcDbEntity
  8
0
  6
Continuous
 62
     7
370
    25
100
AcDbSpline
210
0.0
220
0.0
230
1.0
 70
     8
 71
     3
 72
    27
 73
    23
 74
     0
 42
0.00000001
 43
0.00000001
 40
0.0
 40
0.0
 40
0.0
 40
0.0
 40
0.0229197101274763
 40
0.0468817348734235
 40
0.0718856029466654
 40
0.097928761115964
 40
0.1250064777854742
 40
0.1846333534153438
 40
0.2500133286430881
 40
0.3094059856524017
 40
0.3750188917099996
 40
0.4321434331897909
 40
0.5000107398849514
 40
0.5625115502234519
 40
0.6250161944342706
 40
0.6936105922400632
 40
0.7500170584383109
 40
0.8161315897222775
 40
0.8749974795757338
 40
0.9196797067603492
 40
0.9613412378601875
 40
1.0
 40
1.0
 40
1.0
 40
1.0
 10
850.3377354975069
 20
-30.80981970873814
 30
0.0
 10
850.0004926075492
 20
-31.11629398188426
 30
0.0
 10
849.3106701068713
 20
-31.74317999131676
 30
0.0
 10
848.2479370965143
 20
-32.69324423694425
 30
0.0
 10
847.1354418987061
 20
-33.67670681410107
 30
0.0
 10
845.9727899774134
 20
-34.69221277516399
 30
0.0
 10
844.2896917251984
 20
-36.14580109070237
 30
0.0
 10
842.0091123643374
 20
-38.08166056880713
 30
0.0
 10
839.2276967288363
 20
-40.39176448318443
 30
0.0
 10
836.3422943605035
 20
-42.74186414049452
 30
0.0
 10
833.5689225204658
 20
-44.95992151906886
 30
0.0
 10
830.6558302210451
 20
-47.25057675273081
 30
0.0
 10
827.7780635434808
 20
-49.47572865255706
 30
0.0
 10
824.8063866661836
 20
-51.73390673454747
 30
0.0
 10
821.8123855940765
 20
-53.97090646536051
 30
0.0
 10
818.9006383520884
 20
-56.10683253758369
 30
0.0
 10
815.9224106687572
 20
-58.25111835783098
 30
0.0
 10
813.0832664272889
 20
-60.25520853618721
 30
0.0
 10
810.416771553172
 20
-62.09566017092666
 30
0.0
 10
808.1246156964792
 20
-63.64356161214874
 30
0.0
 10
806.1449581425169
 20
-64.95600305189959
 30
0.0
 10
804.8667723185129
 20
-65.78019257230783
 30
0.0
 10
804.2515718536289
 20
-66.17688119659509
 30
0.0
  0
SPLINE
  5
163
330
1F
100
AcDbEntity
  8
0
  6
Continuous
 62
     7
370
    25
100
AcDbSpline
210
0.0
220
0.0
230
1.0
 70
     8
 71
     3
 72
     9
 73
     5
 74
     0
 42
0.00000001
 43
0.00000001
 40
0.0
 40
0.0
 40
0.0
 40
0.0
 40
0.179355659117845
 40
1.0
 40
1.0
 40
1.0
 40
1.0
 10
860.9633548028456
 20
-2.633789628707139
 30
0.0
 10
860.970902036205
 20
-2.605568379217493
 30
0.0
 10
861.0129817419495
 20
-2.448220405763646
 30
0.0
 10
861.0097299210415
 20
-2.277351266199656
 30
0.0
 10
861.0070613326161
 20
-2.13712847378511
 30
0.0
  0
SPLINE
  5
164
330
1F
100
AcDbEntity
  8
0
  6
Continuous
 62
     7
370
    25
100
AcDbSpline
210
0.0
220
0.0
230
1.0
 70
     8
 71
     3
 72
    17
 73
    13
 74
     0
 42
0.00000001
 43
0.00000001
 40
0.0
 40
0.0
 40
0.0
 40
0.0
 40
0.0740264094329584
 40
0.1400551387059209
 40
0.198459544334745
 40
0.2497796555573069
 40
0.3726701995242204
 40
0.4995255999364895
 40
0.615525457384687
 40
0.7493629997523991
 40
0.8566615199404776
 40
1.0
 40
1.0
 40
1.0
 40
1.0
 10
860.3388338159807
 20
6.005707661137061
 30
0.0
 10
860.326739487051
 20
6.07463370376643
 30
0.0
 10
860.3038574787403
 20
6.205039143323043
 30
0.0
 10
860.2611580419524
 20
6.385742678548246
 30
0.0
 10
860.2145912310174
 20
6.541192792700601
 30
0.0
 10
860.1369667945115
 20
6.735879418755419
 30
0.0
 10
859.9984184999619
 20
6.954582424887501
 30
0.0
 10
859.7835895232614
 20
7.138613262218985
 30
0.0
 10
859.5394861063145
 20
7.250832651187478
 30
0.0
 10
859.3000699179001
 20
7.308802816869187
 30
0.0
 10
859.0396655753257
 20
7.332369603272548
 30
0.0
 10
858.8696848106235
 20
7.334042993941692
 30
0.0
 10
858.7724733676695
 20
7.335000000588066
 30
0.0
  0
SPLINE
  5
165
330
1F
100
AcDbEntity
  8
0
  6
Continuous
 62
     7
370
    25
100
AcDbSpline
210
0.0
220
0.0
230
1.0
 70
     8
 71
     3
 72
     9
 73
     5
 74
     0
 42
0.00000001
 43
0.00000001
 40
0.0
 40
0.0
 40
0.0
 40
0.0
 40
0.5616830179615219
 40
1.0
 40
1.0
 40
1.0
 40
1.0
 10
804.2491382080576
 20
-66.18740536925694
 30
0.0
 10
804.2483007662933
 20
-66.18677139324141
 30
0.0
 10
804.2468098154586
 20
-66.18564268541999
 30
0.0
 10
804.2483757095087
 20
-66.1840143543806
 30
0.0
 10
804.2490620674629
 20
-66.18330062923367
 30
0.0
  0
SPLINE
  5
167
330
1F
100
AcDbEntity
  8
0
  6
Continuous
 62
     7
370
    25
100
AcDbSpline
210
0.0
220
0.0
230
1.0
 70
     8
 71
     3
 72
     8
 73
     4
 74
     0
 42
0.00000001
 43
0.00000001
 40
0.0
 40
0.0
 40
0.0
 40
0.0
 40
1.0
 40
1.0
 40
1.0
 40
1.0
 10
-859.4007121767539
 20
-1.981535887509267
 30
0.0
 10
-859.365230266622
 20
1.174639234077346
 30
0.0
 10
-859.2486715833397
 20
3.014042733798072
 30
0.0
 10
-858.8791393813309
 20
6.019464010358466
 30
0.0
  0
SPLINE
  5
168
330
1F
100
AcDbEntity
  8
0
  6
Continuous
 62
     7
370
    25
100
AcDbSpline
210
0.0
220
0.0
230
1.0
 70
     8
 71
     3
 72
    26
 73
    22
 74
     0
 42
0.00000001
 43
0.00000001
 40
0.0
 40
0.0
 40
0.0
 40
0.0
 40
0.1190939358036873
 40
0.2781119343095502
 40
0.4771147519284707
 40
0.6106373088919136
 40
0.7121510546203587
 40
0.7429244264144399
 40
0.7692381049669372
 40
0.7911416011800698
 40
0.8085024243327502
 40
0.821298724365212
 40
0.8295792760440333
 40
0.8456470342090969
 40
0.8730839488241233
 40
0.9115380858833108
 40
0.923277417423241
 40
0.9380002610783639
 40
0.9556959350843423
 40
0.9763603465018735
 40
1.0
 40
1.0
 40
1.0
 40
1.0
 10
-838.1060078011095
 20
6.00574481369609
 30
0.0
 10
-838.9456684099137
 20
6.005958092758112
 30
0.0
 10
-840.9064704818428
 20
6.006456148784922
 30
0.0
 10
-844.2703104234172
 20
5.999141636640837
 30
0.0
 10
-847.7358501551544
 20
5.985712622476658
 30
0.0
 10
-850.7959692557939
 20
5.975545672750105
 30
0.0
 10
-852.6700239364372
 20
5.969822144706205
 30
0.0
 10
-853.7882126289066
 20
5.967182689599948
 30
0.0
 10
-854.3451364903527
 20
5.966719983728385
 30
0.0
 10
-854.8074652568157
 20
5.96697017208564
 30
0.0
 10
-855.1745312040739
 20
5.967836958200746
 30
0.0
 10
-855.4454833065038
 20
5.969016337541544
 30
0.0
 10
-855.7071146368526
 20
5.971376900844816
 30
0.0
 10
-856.0711487736319
 20
5.97858978857102
 30
0.0
 10
-856.6438503549512
 20
5.989975933744896
 30
0.0
 10
-857.1668344349425
 20
6.004377374609959
 30
0.0
 10
-857.5833255063756
 20
6.013396850484409
 30
0.0
 10
-857.8591357544876
 20
6.016277173514495
 30
0.0
 10
-858.1771636570431
 20
6.018318207714479
 30
0.0
 10
-858.5303614325771
 20
6.019311713543141
 30
0.0
 10
-858.757789071983
 20
6.01941102173681
 30
0.0
 10
-858.8791393499242
 20
6.019464010357467
 30
0.0
  0
SPLINE
  5
169
330
1F
100
AcDbEntity
  8
0
  6
Continuous
 62
     7
370
    25
100
AcDbSpline
210
0.0
220
0.0
230
1.0
 70
     8
 71
     3
 72
    10
 73
     6
 74
     0
 42
0.00000001
 43
0.00000001
 40
0.0
 40
0.0
 40
0.0
 40
0.0
 40
0.5
 40
0.5
 40
1.0
 40
1.0
 40
1.0
 40
1.0
 10
-838.7669764192513
 20
-2.137340462683823
 30
0.0
 10
-838.7594434924138
 20
-0.7662581547561165
 30
0.0
 10
-838.7275668677563
 20
0.6056861396684932
 30
0.0
 10
-838.5133783732058
 20
3.325068207527981
 30
0.0
 10
-838.3253013651322
 20
4.67043963859104
 30
0.0
 10
-838.1060078011093
 20
6.00574481369609
 30
0.0
  0
SPLINE
  5
16A
330
1F
100
AcDbEntity
  8
0
  6
Continuous
 62
     7
370
    25
100
AcDbSpline
210
0.0
220
0.0
230
1.0
 70
     8
 71
     3
 72
    37
 73
    33
 74
     0
 42
0.00000001
 43
0.00000001
 40
0.0
 40
0.0
 40
0.0
 40
0.0
 40
0.0118106105633656
 40
0.0235188515219508
 40
0.03509907317432
 40
0.0465273090076972
 40
0.0577815686210739
 40
0.0688421317485356
 40
0.0796841046980675
 40
0.0902919874690312
 40
0.1006624252434858
 40
0.1107921152043994
 40
0.1206780108587531
 40
0.1303175240080431
 40
0.1397087265554203
 40
0.1488670837154836
 40
0.1578380295353595
 40
0.1666454712620242
 40
0.2077069784862859
 40
0.2358351761075552
 40
0.263037378424718
 40
0.2779058660888807
 40
0.2927689648318228
 40
0.3179520987803047
 40
0.3431513870324578
 40
0.3585486699877229
 40
0.3983542660191647
 40
0.4588686443233465
 40
0.5247020145384519
 40
0.7272855525443104
 40
0.8857183877071101
 40
1.0
 40
1.0
 40
1.0
 40
1.0
 10
-859.4007121677049
 20
-1.981535887509212
 30
0.0
 10
-859.3413612337541
 20
-1.981584705162187
 30
0.0
 10
-859.2231737957901
 20
-1.981681917336497
 30
0.0
 10
-859.0382632222149
 20
-1.982636382827196
 30
0.0
 10
-858.8495139710257
 20
-1.984181081197134
 30
0.0
 10
-858.6570565788617
 20
-1.986370058849329
 30
0.0
 10
-858.461795780818
 20
-1.989185952232964
 30
0.0
 10
-858.2644126243783
 20
-1.992628035901667
 30
0.0
 10
-858.0657604576355
 20
-1.996695147469418
 30
0.0
 10
-857.8667744044193
 20
-2.001386604679689
 30
0.0
 10
-857.6681163176247
 20
-2.006696750251113
 30
0.0
 10
-857.4703835755992
 20
-2.012623177672979
 30
0.0
 10
-857.2741386680372
 20
-2.019162778960248
 30
0.0
 10
-857.0799371203742
 20
-2.02631382752344
 30
0.0
 10
-856.8881524535706
 20
-2.034074806805508
 30
0.0
 10
-856.6989884956744
 20
-2.042476081772437
 30
0.0
 10
-856.5126899195104
 20
-2.051415214194552
 30
0.0
 10
-856.1037439071747
 20
-2.073082696554984
 30
0.0
 10
-855.5559366223094
 20
-2.102161219260379
 30
0.0
 10
-854.8794588876965
 20
-2.132026108925766
 30
0.0
 10
-854.3862601248584
 20
-2.136605750798048
 30
0.0
 10
-853.9862723022092
 20
-2.134970389041146
 30
0.0
 10
-853.6004765297802
 20
-2.132575596990482
 30
0.0
 10
-853.1420873851057
 20
-2.130197217091234
 30
0.0
 10
-852.6799653072366
 20
-2.135181549789367
 30
0.0
 10
-852.115095730752
 20
-2.135454283909377
 30
0.0
 10
-851.3021224432987
 20
-2.136266681885324
 30
0.0
 10
-850.1348071810384
 20
-2.137113405209723
 30
0.0
 10
-847.8238914552927
 20
-2.137346466211443
 30
0.0
 10
-844.8250472774378
 20
-2.139548241785583
 30
0.0
 10
-841.4858274246959
 20
-2.139649267059562
 30
0.0
 10
-839.5698648948813
 20
-2.138022262614059
 30
0.0
 10
-838.7669764192514
 20
-2.137340462683823
 30
0.0
  0
SPLINE
  5
16B
330
1F
100
AcDbEntity
  8
0
  6
Continuous
 62
     7
370
    25
100
AcDbSpline
210
0.0
220
0.0
230
1.0
 70
     8
 71
     3
 72
    14
 73
    10
 74
     0
 42
0.00000001
 43
0.00000001
 40
0.0
 40
0.0
 40
0.0
 40
0.0
 40
0.25
 40
0.25
 40
0.5
 40
0.5
 40
0.75
 40
0.75
 40
1.0
 40
1.0
 40
1.0
 40
1.0
 10
-858.82996189317
 20
-3.389357591104925
 30
0.0
 10
-858.9166755109572
 20
-3.320161803255173
 30
0.0
 10
-859.0054915146515
 20
-3.247834294385465
 30
0.0
 10
-859.1689708144048
 20
-3.063698483691313
 30
0.0
 10
-859.2411201486581
 20
-2.954003919459991
 30
0.0
 10
-859.3427656680363
 20
-2.703283331452255
 30
0.0
 10
-859.3731380029287
 20
-2.560296389413408
 30
0.0
 10
-859.4029059532966
 20
-2.268265898203281
 30
0.0
 10
-859.4023037210618
 20
-2.123104006026222
 30
0.0
 10
-859.400712315752
 20
-1.981535884179875
 30
0.0
  0
SPLINE
  5
16C
330
1F
100
AcDbEntity
  8
0
  6
Continuous
 62
     7
370
    25
100
AcDbSpline
210
0.0
220
0.0
230
1.0
 70
     8
 71
     3
 72
    15
 73
    11
 74
     0
 42
0.00000001
 43
0.00000001
 40
0.0
 40
0.0
 40
0.0
 40
0.0
 40
0.097260893016489
 40
0.1922687029866996
 40
0.2857369824006494
 40
0.3774387492994157
 40
0.4669691929101046
 40
0.6280371952954714
 40
0.8075535386906434
 40
0.9999999999999999
 40
0.9999999999999999
 40
0.9999999999999999
 40
0.9999999999999999
 10
-838.3447391481566
 20
-3.405563180990778
 30
0.0
 10
-838.375774910836
 20
-3.380761865826809
 30
0.0
 10
-838.437127481756
 20
-3.331733766751721
 30
0.0
 10
-838.5157387529928
 20
-3.249812650363892
 30
0.0
 10
-838.5822075025269
 20
-3.159292501325739
 30
0.0
 10
-838.6363702664489
 20
-3.058646426346567
 30
0.0
 10
-838.689463564317
 20
-2.917506629022015
 30
0.0
 10
-838.7334737826068
 20
-2.712271749567507
 30
0.0
 10
-838.7630333200219
 20
-2.434769393732605
 30
0.0
 10
-838.7656319418231
 20
-2.2387547242535
 30
0.0
 10
-838.7669764191836
 20
-2.137340472535665
 30
0.0
  0
SPLINE
  5
16D
330
1F
100
AcDbEntity
  8
0
  6
Continuous
 62
     7
370
    25
100
AcDbSpline
210
0.0
220
0.0
230
1.0
 70
     8
 71
     3
 72
    28
 73
    24
 74
     0
 42
0.00000001
 43
0.00000001
 40
0.0
 40
0.0
 40
0.0
 40
0.0
 40
0.2257087121063821
 40
0.4957263232479108
 40
0.6185696911507962
 40
0.7289635744544637
 40
0.7436631450400617
 40
0.7551590346393987
 40
0.7662743590310117
 40
0.7753226071605693
 40
0.7823057835555374
 40
0.7872199580752073
 40
0.7900591784721103
 40
0.8238594578018678
 40
0.8579866548796533
 40
0.8725346288336644
 40
0.8944814371624495
 40
0.9110229341822462
 40
0.9303042218061947
 40
0.9475750684485679
 40
0.9650006454505771
 40
0.9825029609297581
 40
1.0
 40
1.0
 40
1.0
 40
1.0
 10
-838.3447391477252
 20
-3.40556866749131
 30
0.0
 10
-839.9167001897194
 20
-3.405909055096412
 30
0.0
 10
-843.3692140974216
 20
-3.406656651830209
 30
0.0
 10
-847.6772654392518
 20
-3.409690895710193
 30
0.0
 10
-851.1822282777399
 20
-3.412958244848108
 30
0.0
 10
-852.9089532271554
 20
-3.418552437406464
 30
0.0
 10
-853.8602385110485
 20
-3.420369662502365
 30
0.0
 10
-854.1200909526369
 20
-3.418914787130467
 30
0.0
 10
-854.3405303680614
 20
-3.423960466648501
 30
0.0
 10
-854.5295524593448
 20
-3.426822841889221
 30
0.0
 10
-854.6753766164675
 20
-3.429232708769769
 30
0.0
 10
-854.777955162086
 20
-3.430853801291545
 30
0.0
 10
-855.0671771798927
 20
-3.434871675776219
 30
0.0
 10
-855.5597023791892
 20
-3.436325887981317
 30
0.0
 10
-856.1302483946982
 20
-3.430613985513142
 30
0.0
 10
-856.6107449924496
 20
-3.419848566511507
 30
0.0
 10
-856.9646084249467
 20
-3.41011323252377
 30
0.0
 10
-857.3378807608594
 20
-3.40148578220989
 30
0.0
 10
-857.6676402641306
 20
-3.396767122696043
 30
0.0
 10
-857.9882366294001
 20
-3.393274725470685
 30
0.0
 10
-858.283733901414
 20
-3.3909186853327
 30
0.0
 10
-858.5667579988403
 20
-3.389502390638399
 30
0.0
 10
-858.7422360704633
 20
-3.389405829040237
 30
0.0
 10
-858.8299618789725
 20
-3.38935755551989
 30
0.0
  0
SPLINE
  5
16E
330
1F
100
AcDbEntity
  8
0
  6
Continuous
 62
     7
370
    25
100
AcDbSpline
210
0.0
220
0.0
230
1.0
 70
     8
 71
     3
 72
    16
 73
    12
 74
     0
 42
0.00000001
 43
0.00000001
 40
0.0
 40
0.0
 40
0.0
 40
0.0
 40
0.2499999999999876
 40
0.3749999999999815
 40
0.4374999999999786
 40
0.4687499999999772
 40
0.4843749999999764
 40
0.4843749999999764
 40
0.4999999999999756
 40
0.4999999999999756
 40
1.0
 40
1.0
 40
1.0
 40
1.0
 10
-837.746374026049
 20
5.923129961607321
 30
0.0
 10
-837.8707754425643
 20
5.168572565633078
 30
0.0
 10
-838.0283110771102
 20
4.102532648092461
 30
0.0
 10
-838.1612362928543
 20
2.973962719697965
 30
0.0
 10
-838.2149823112525
 20
2.438463582684847
 30
0.0
 10
-838.238676173082
 20
2.177910470974209
 30
0.0
 10
-838.2481494394308
 20
2.067786949554562
 30
0.0
 10
-838.2543135623599
 20
1.994713957026994
 30
0.0
 10
-838.2574585942102
 20
1.956636300454673
 30
0.0
 10
-838.349594895288
 20
0.8187532906645534
 30
0.0
 10
-838.3987606723078
 20
-0.5353645551006703
 30
0.0
 10
-838.407746175855
 20
-2.140198559876627
 30
0.0
  0
SPLINE
  5
16F
330
1F
100
AcDbEntity
  8
0
  6
Continuous
 62
     7
370
    25
100
AcDbSpline
210
0.0
220
0.0
230
1.0
 70
     8
 71
     3
 72
    10
 73
     6
 74
     0
 42
0.00000001
 43
0.00000001
 40
0.0
 40
0.0
 40
0.0
 40
0.0
 40
0.5
 40
0.5
 40
1.0
 40
1.0
 40
1.0
 40
1.0
 10
-838.407746175855
 20
-2.140198559876627
 30
0.0
 10
-838.4531417159416
 20
-2.13964836013697
 30
0.0
 10
-838.5053042101551
 20
-2.139102650360158
 30
0.0
 10
-838.6318159795136
 20
-2.138100246345975
 30
0.0
 10
-838.7027866906125
 20
-2.137678163634471
 30
0.0
 10
-838.766976419231
 20
-2.137340467608662
 30
0.0
  0
SPLINE
  5
170
330
1F
100
AcDbEntity
  8
0
  6
Continuous
 62
     7
370
    25
100
AcDbSpline
210
0.0
220
0.0
230
1.0
 70
     8
 71
     3
 72
    10
 73
     6
 74
     0
 42
0.00000001
 43
0.00000001
 40
0.0
 40
0.0
 40
0.0
 40
0.0
 40
0.5
 40
0.5
 40
1.0
 40
1.0
 40
1.0
 40
1.0
 10
-837.746378537492
 20
5.923102597427398
 30
0.0
 10
-837.7913895035169
 20
5.93794421957583
 30
0.0
 10
-837.8432337952299
 20
5.954357719883618
 30
0.0
 10
-837.9698299808525
 20
5.983478793334996
 30
0.0
 10
-838.0411665260561
 20
5.995401509044873
 30
0.0
 10
-838.1056921532704
 20
6.005755942357749
 30
0.0
  0
SPLINE
  5
171
330
1F
100
AcDbEntity
  8
0
  6
Continuous
 62
     7
370
    25
100
AcDbSpline
210
0.0
220
0.0
230
1.0
 70
     8
 71
     3
 72
    16
 73
    12
 74
     0
 42
0.00000001
 43
0.00000001
 40
0.0
 40
0.0
 40
0.0
 40
0.0
 40
0.2500000000000109
 40
0.3750000000000165
 40
0.4375000000000192
 40
0.4687500000000205
 40
0.4843750000000212
 40
0.4843750000000212
 40
0.5000000000000219
 40
0.5000000000000219
 40
1.0
 40
1.0
 40
1.0
 40
1.0
 10
-833.2216654747699
 20
-7.423798359986023
 30
0.0
 10
-832.9490465148561
 20
-9.430658309731331
 30
0.0
 10
-832.4900320822621
 20
-12.37043857227582
 30
0.0
 10
-831.8668647569727
 20
-15.67679030328251
 30
0.0
 10
-831.5333684725123
 20
-17.29911819162877
 30
0.0
 10
-831.361142174827
 20
-18.10257014151251
 30
0.0
 10
-831.2861570139372
 20
-18.4452541212578
 30
0.0
 10
-831.2359060421313
 20
-18.67334286993139
 30
0.0
 10
-831.2101074358451
 20
-18.78963371984926
 30
0.0
 10
-830.3902665786936
 20
-22.46078610653462
 30
0.0
 10
-829.3974073665369
 20
-26.14682994136924
 30
0.0
 10
-828.206689567958
 20
-29.95901288110214
 30
0.0
  0
SPLINE
  5
172
330
1F
100
AcDbEntity
  8
0
  6
Continuous
 62
     7
370
    25
100
AcDbSpline
210
0.0
220
0.0
230
1.0
 70
     8
 71
     3
 72
    24
 73
    20
 74
     0
 42
0.00000001
 43
0.00000001
 40
0.0
 40
0.0
 40
0.0
 40
0.0
 40
0.2499999999995879
 40
0.3749999999993823
 40
0.437499999999252
 40
0.4687499999992711
 40
0.4843749999993082
 40
0.492187499999355
 40
0.492187499999355
 40
0.4999999999994017
 40
0.4999999999994017
 40
0.6249999999993656
 40
0.6874999999993814
 40
0.7187499999993893
 40
0.7343749999993932
 40
0.7343749999993932
 40
0.749999999999397
 40
0.749999999999397
 40
1.0
 40
1.0
 40
1.0
 40
1.0
 10
-834.022184704356
 20
-6.043621225506113
 30
0.0
 10
-833.8992802387834
 20
-6.137916799110632
 30
0.0
 10
-833.7404915929558
 20
-6.276400006134719
 30
0.0
 10
-833.5999822647499
 20
-6.432783479242977
 30
0.0
 10
-833.5409136236282
 20
-6.509680148692132
 30
0.0
 10
-833.5141758088138
 20
-6.547804716640348
 30
0.0
 10
-833.5015060278427
 20
-6.566786058920471
 30
0.0
 10
-833.4962259345187
 20
-6.574903575248592
 30
0.0
 10
-833.4927391640394
 20
-6.580311398435123
 30
0.0
 10
-833.4916675724271
 20
-6.581978973650204
 30
0.0
 10
-833.4514584709219
 20
-6.645464902799381
 30
0.0
 10
-833.4008326690307
 20
-6.739040789687234
 30
0.0
 10
-833.352514213316
 20
-6.855122870114194
 30
0.0
 10
-833.3310412304135
 20
-6.914891463425443
 30
0.0
 10
-833.3224141473734
 20
-6.940876764794213
 30
0.0
 10
-833.3167906751083
 20
-6.958282563472973
 30
0.0
 10
-833.3135332881241
 20
-6.968694739530601
 30
0.0
 10
-833.2765717071971
 20
-7.089684067145885
 30
0.0
 10
-833.24661868925
 20
-7.238997950562598
 30
0.0
 10
-833.2216654747699
 20
-7.423798359986023
 30
0.0
  0
SPLINE
  5
173
330
1F
100
AcDbEntity
  8
0
  6
Continuous
 62
     7
370
    25
100
AcDbSpline
210
0.0
220
0.0
230
1.0
 70
     8
 71
     3
 72
    14
 73
    10
 74
     0
 42
0.00000001
 43
0.00000001
 40
0.0
 40
0.0
 40
0.0
 40
0.0
 40
0.25
 40
0.25
 40
0.5
 40
0.5
 40
0.75
 40
0.75
 40
1.0
 40
1.0
 40
1.0
 40
1.0
 10
-834.0222049255744
 20
-6.043605711285648
 30
0.0
 10
-834.0382480384371
 20
-6.085427054581705
 30
0.0
 10
-834.0551001058595
 20
-6.128486859482529
 30
0.0
 10
-834.099860758731
 20
-6.214770065542274
 30
0.0
 10
-834.1272444497476
 20
-6.256742876207366
 30
0.0
 10
-834.1914903602188
 20
-6.32882513622901
 30
0.0
 10
-834.2288990941298
 20
-6.359547722589287
 30
0.0
 10
-834.3057994840452
 20
-6.409764279785069
 30
0.0
 10
-834.3441765928218
 20
-6.42866944145365
 30
0.0
 10
-834.3814496943642
 20
-6.446666450081184
 30
0.0
  0
SPLINE
  5
174
330
1F
100
AcDbEntity
  8
0
  6
Continuous
 62
     7
370
    25
100
AcDbSpline
210
0.0
220
0.0
230
1.0
 70
     8
 71
     3
 72
     8
 73
     4
 74
     0
 42
0.00000001
 43
0.00000001
 40
0.0
 40
0.0
 40
0.0
 40
0.0
 40
1.0
 40
1.0
 40
1.0
 40
1.0
 10
-834.3814565137233
 20
-6.446698101141957
 30
0.0
 10
-835.7131018228291
 20
-5.432988289925056
 30
0.0
 10
-837.0177359554041
 20
-4.419278478708099
 30
0.0
 10
-838.3447391477252
 20
-3.40556866749131
 30
0.0
  0
SPLINE
  5
175
330
1F
100
AcDbEntity
  8
0
  6
Continuous
 62
     7
370
    25
100
AcDbSpline
210
0.0
220
0.0
230
1.0
 70
     8
 71
     3
 72
     8
 73
     4
 74
     0
 42
0.00000001
 43
0.00000001
 40
0.0
 40
0.0
 40
0.0
 40
0.0
 40
1.0
 40
1.0
 40
1.0
 40
1.0
 10
-854.935339185025
 20
-6.498078188053313
 30
0.0
 10
-856.2340139470462
 20
-5.461848781406708
 30
0.0
 10
-857.5313842220377
 20
-4.425599984929585
 30
0.0
 10
-858.82996189317
 20
-3.389357591104925
 30
0.0
  0
SPLINE
  5
176
330
1F
100
AcDbEntity
  8
0
  6
Continuous
 62
     7
370
    25
100
AcDbSpline
210
0.0
220
0.0
230
1.0
 70
     8
 71
     3
 72
    23
 73
    19
 74
     0
 42
0.00000001
 43
0.00000001
 40
0.0
 40
0.0
 40
0.0
 40
0.0
 40
0.0084295529003323
 40
0.0189256019916567
 40
0.031590250759973
 40
0.0466098397240253
 40
0.0642548315289244
 40
0.0849074565281252
 40
0.1090752618458998
 40
0.1391213759982847
 40
0.1693680199474461
 40
0.1995029868134486
 40
0.2290220620961199
 40
0.3419126588132961
 40
0.4802002944952561
 40
0.6400540322685336
 40
0.8133939504988577
 40
1.0
 40
1.0
 40
1.0
 40
1.0
 10
-854.9353418862439
 20
-6.498084958652894
 30
0.0
 10
-854.8933269318561
 20
-6.497973367572351
 30
0.0
 10
-854.7989971003882
 20
-6.497722828973041
 30
0.0
 10
-854.6310142550287
 20
-6.496455093534914
 30
0.0
 10
-854.4168300875856
 20
-6.49456200722065
 30
0.0
 10
-854.1476423173916
 20
-6.491923410087752
 30
0.0
 10
-853.8155019207354
 20
-6.488571826709588
 30
0.0
 10
-853.4106564838876
 20
-6.484508590518412
 30
0.0
 10
-852.9111773815007
 20
-6.47954869761036
 30
0.0
 10
-852.3361572996752
 20
-6.474376936419556
 30
0.0
 10
-851.7136708195987
 20
-6.469662209189986
 30
0.0
 10
-851.0914318573122
 20
-6.465641642726172
 30
0.0
 10
-849.8939472029981
 20
-6.45915080007331
 30
0.0
 10
-847.9402566647184
 20
-6.453123276259298
 30
0.0
 10
-845.0808908772493
 20
-6.450048057214552
 30
0.0
 10
-841.800482722247
 20
-6.448858648668176
 30
0.0
 10
-838.1840562351626
 20
-6.447458790017125
 30
0.0
 10
-835.6797558328711
 20
-6.446957818682931
 30
0.0
 10
-834.3814565137232
 20
-6.446698101142068
 30
0.0
  0
SPLINE
  5
177
330
1F
100
AcDbEntity
  8
0
  6
Continuous
 62
     7
370
    25
100
AcDbSpline
210
0.0
220
0.0
230
1.0
 70
     8
 71
     3
 72
    18
 73
    14
 74
     0
 42
0.00000001
 43
0.00000001
 40
0.0
 40
0.0
 40
0.0
 40
0.0
 40
0.1088373580182339
 40
0.2120718938187309
 40
0.3076293422994597
 40
0.3941801281459777
 40
0.4728044717069187
 40
0.5458868644246113
 40
0.616553272429502
 40
0.6996122328376989
 40
0.7949525357792137
 40
0.9009394348241565
 40
1.0
 40
1.0
 40
1.0
 40
1.0
 10
-838.1060077600727
 20
6.005720313747743
 30
0.0
 10
-838.0898827189391
 20
6.098072681768707
 30
0.0
 10
-838.0584627352737
 20
6.278023223949047
 30
0.0
 10
-838.0042921773377
 20
6.532306930324361
 30
0.0
 10
-837.9458405089986
 20
6.75507427558003
 30
0.0
 10
-837.881984452286
 20
6.937443335854388
 30
0.0
 10
-837.8120595110572
 20
7.075133484350904
 30
0.0
 10
-837.7387770137091
 20
7.173011132678708
 30
0.0
 10
-837.6480369401137
 20
7.243364259100216
 30
0.0
 10
-837.5322022603536
 20
7.293096541700628
 30
0.0
 10
-837.3876716502285
 20
7.323901301220348
 30
0.0
 10
-837.2241909184552
 20
7.335017666643628
 30
0.0
 10
-837.1003382079515
 20
7.335005755154278
 30
0.0
 10
-837.0405036737977
 20
7.335000000589731
 30
0.0
  0
SPLINE
  5
178
330
1F
100
AcDbEntity
  8
0
  6
Continuous
 62
     7
370
    25
100
AcDbSpline
210
0.0
220
0.0
230
1.0
 70
     8
 71
     3
 72
    14
 73
    10
 74
     0
 42
0.00000001
 43
0.00000001
 40
0.0
 40
0.0
 40
0.0
 40
0.0
 40
0.25
 40
0.25
 40
0.5
 40
0.5
 40
0.75
 40
0.75
 40
1.0
 40
1.0
 40
1.0
 40
1.0
 10
-858.8790729167825
 20
6.019453417088039
 30
0.0
 10
-858.8600327515716
 20
6.1743273638451
 30
0.0
 10
-858.8395018700975
 20
6.33131194178016
 30
0.0
 10
-858.7690679772018
 20
6.636675150571481
 30
0.0
 10
-858.7196952067426
 20
6.782900317975072
 30
0.0
 10
-858.5869771902748
 20
7.025671469825856
 30
0.0
 10
-858.5033784069032
 20
7.121150266910514
 30
0.0
 10
-858.3066651772718
 20
7.256248792945453
 30
0.0
 10
-858.1946150472082
 20
7.296051895398891
 30
0.0
 10
-858.0818917736807
 20
7.315797972191618
 30
0.0
  0
SPLINE
  5
179
330
1F
100
AcDbEntity
  8
0
  6
Continuous
 62
     7
370
    25
100
AcDbSpline
210
0.0
220
0.0
230
1.0
 70
     8
 71
     3
 72
     8
 73
     4
 74
     0
 42
0.00000001
 43
0.00000001
 40
0.0
 40
0.0
 40
0.0
 40
0.0
 40
1.0
 40
1.0
 40
1.0
 40
1.0
 10
-858.0818664426198
 20
7.315797972110016
 30
0.0
 10
-857.9780644880443
 20
7.333981449423376
 30
0.0
 10
-857.8748419427307
 20
7.335000000589731
 30
0.0
 10
-857.7732324326574
 20
7.335000000589731
 30
0.0
  0
SPLINE
  5
17A
330
1F
100
AcDbEntity
  8
0
  6
Continuous
 62
     7
370
    25
100
AcDbSpline
210
0.0
220
0.0
230
1.0
 70
    24
 71
     3
 72
    63
 73
    59
 74
     0
 42
0.00000001
 43
0.00000001
 40
0.0
 40
0.0
 40
0.0
 40
0.0
 40
0.0312500000003384
 40
0.0312500000003384
 40
0.0625000000006767
 40
0.0625000000006767
 40
0.0937500000010151
 40
0.0937500000010151
 40
0.0976562500010622
 40
0.0976562500010622
 40
0.0996093750010858
 40
0.0996093750010858
 40
0.1015625000011093
 40
0.1093750000011675
 40
0.1250000000012675
 40
0.1289062500012855
 40
0.1308593750013015
 40
0.1308593750013015
 40
0.1318359375013095
 40
0.1318359375013095
 40
0.1328125000013174
 40
0.1406250000012423
 40
0.1562500000010923
 40
0.1640625000010172
 40
0.1640625000010172
 40
0.1650390625010004
 40
0.1650390625010004
 40
0.1660156250009836
 40
0.1679687500009342
 40
0.1718750000008356
 40
0.1875000000004883
 40
0.1875000000004883
 40
0.2499999999990835
 40
0.2499999999990835
 40
0.2578124999989159
 40
0.2597656249988819
 40
0.2607421874988649
 40
0.2607421874988649
 40
0.2612304687488644
 40
0.2612304687488644
 40
0.2617187499988639
 40
0.26562499999886
 40
0.2812499999988443
 40
0.3124999999987722
 40
0.3749999999985996
 40
0.4999999999982546
 40
0.515624999998209
 40
0.5195312499981952
 40
0.5195312499981952
 40
0.5205078124981918
 40
0.5205078124981918
 40
0.5214843749981883
 40
0.5234374999981959
 40
0.5312499999982258
 40
0.562499999998345
 40
0.6249999999985838
 40
0.7499999999990611
 40
1.0
 40
1.0
 40
1.0
 40
1.0
 10
-857.7732256324609
 20
7.335000000589731
 30
0.0
 10
-857.6164635956194
 20
7.335000000589787
 30
0.0
 10
-857.4459719418624
 20
7.335000000589787
 30
0.0
 10
-857.0857726647789
 20
7.335000000589787
 30
0.0
 10
-856.8947609086822
 20
7.335000000589787
 30
0.0
 10
-856.4909131613833
 20
7.335000000589787
 30
0.0
 10
-856.2855370923171
 20
7.335000000589787
 30
0.0
 10
-856.0397901597411
 20
7.335000000589787
 30
0.0
 10
-856.012320697931
 20
7.335000000589787
 30
0.0
 10
-855.9708701345497
 20
7.335000000589787
 30
0.0
 10
-855.9554819306845
 20
7.335000000589787
 30
0.0
 10
-855.9330532989936
 20
7.335000000589787
 30
0.0
 10
-855.876270783345
 20
7.335000000589787
 30
0.0
 10
-855.7193940691755
 20
7.335000000589787
 30
0.0
 10
-855.526562451681
 20
7.335000000589787
 30
0.0
 10
-855.3594112938022
 20
7.335000000589787
 30
0.0
 10
-855.3125449288631
 20
7.335000000589787
 30
0.0
 10
-855.2888984653857
 20
7.335000000589787
 30
0.0
 10
-855.2789169657804
 20
7.335000000589787
 30
0.0
 10
-855.269896450293
 20
7.335000000589787
 30
0.0
 10
-855.2286757206847
 20
7.335000000589787
 30
0.0
 10
-855.0984634461533
 20
7.335000000589787
 30
0.0
 10
-854.8781674221277
 20
7.335000000589787
 30
0.0
 10
-854.6727271692234
 20
7.335000000589787
 30
0.0
 10
-854.5906597956989
 20
7.335000000589787
 30
0.0
 10
-854.5858754652512
 20
7.335000000589787
 30
0.0
 10
-854.5721034161098
 20
7.335000000589787
 30
0.0
 10
-854.5514529974092
 20
7.335000000589787
 30
0.0
 10
-854.5033222721821
 20
7.335000000589787
 30
0.0
 10
-854.352391099077
 20
7.335000000589787
 30
0.0
 10
-854.2162016097882
 20
7.335000000589787
 30
0.0
 10
-853.6747097904791
 20
7.335000000589787
 30
0.0
 10
-853.2383714479913
 20
7.335000000589842
 30
0.0
 10
-852.7483135503337
 20
7.335000000589787
 30
0.0
 10
-852.6802499442758
 20
7.335000000589787
 30
0.0
 10
-852.6053799650184
 20
7.335000000589787
 30
0.0
 10
-852.5849608788893
 20
7.335000000589787
 30
0.0
 10
-852.5747513353481
 20
7.335000000589787
 30
0.0
 10
-852.5692762413603
 20
7.335000000589787
 30
0.0
 10
-852.5673879558738
 20
7.335000000589787
 30
0.0
 10
-852.5588489395273
 20
7.335000000589787
 30
0.0
 10
-852.5182379780946
 20
7.335000000589787
 30
0.0
 10
-852.3959355068107
 20
7.335000000589787
 30
0.0
 10
-852.0328039521124
 20
7.335000000589787
 30
0.0
 10
-850.9076974534428
 20
7.335000000589787
 30
0.0
 10
-849.1222465531705
 20
7.335000000589787
 30
0.0
 10
-847.4565472788566
 20
7.335000000589787
 30
0.0
 10
-847.2240338204737
 20
7.335000000589787
 30
0.0
 10
-847.1655345077847
 20
7.335000000589787
 30
0.0
 10
-847.1535421088776
 20
7.335000000589787
 30
0.0
 10
-847.1384514670343
 20
7.335000000589787
 30
0.0
 10
-847.1158196886066
 20
7.335000000589787
 30
0.0
 10
-847.0328825287648
 20
7.335000000589787
 30
0.0
 10
-846.7167991804496
 20
7.335000000589787
 30
0.0
 10
-845.9399188868838
 20
7.335000000589787
 30
0.0
 10
-844.2966315955376
 20
7.335000000589787
 30
0.0
 10
-841.1300303766286
 20
7.335000000589787
 30
0.0
 10
-838.6214693840536
 20
7.335000000589787
 30
0.0
 10
-837.040503672173
 20
7.335000000589787
 30
0.0
  0
SPLINE
  5
17B
330
1F
100
AcDbEntity
  8
0
  6
Continuous
 62
     7
370
    25
100
AcDbSpline
210
0.0
220
0.0
230
1.0
 70
     8
 71
     3
 72
    10
 73
     6
 74
     0
 42
0.00000001
 43
0.00000001
 40
0.0
 40
0.0
 40
0.0
 40
0.0
 40
0.5000000000000001
 40
0.5000000000000001
 40
1.0
 40
1.0
 40
1.0
 40
1.0
 10
-861.0071699520772
 20
-2.137340462683823
 30
0.0
 10
-860.9995352956486
 20
-0.7740658956701396
 30
0.0
 10
-860.9684057361851
 20
0.5999270292183501
 30
0.0
 10
-860.747737259903
 20
3.325186920441148
 30
0.0
 10
-860.5581970406313
 20
4.676454233908334
 30
0.0
 10
-860.3390412641324
 20
6.005744813696589
 30
0.0
  0
SPLINE
  5
17C
330
1F
100
AcDbEntity
  8
0
  6
Continuous
 62
     7
370
    25
100
AcDbSpline
210
0.0
220
0.0
230
1.0
 70
     8
 71
     3
 72
    36
 73
    32
 74
     0
 42
0.00000001
 43
0.00000001
 40
0.0
 40
0.0
 40
0.0
 40
0.0
 40
0.5000000000000189
 40
0.5000000000000189
 40
0.6250000000000235
 40
0.6250000000000235
 40
0.7500000000000283
 40
0.7500000000000283
 40
0.7812500000000274
 40
0.7812500000000274
 40
0.8125000000000264
 40
0.8125000000000264
 40
0.8437500000000255
 40
0.8437500000000255
 40
0.8750000000000245
 40
0.8750000000000245
 40
0.8906250000000238
 40
0.8906250000000238
 40
0.9062500000000229
 40
0.9062500000000229
 40
0.9140625000000225
 40
0.9140625000000225
 40
0.9179687500000246
 40
0.9179687500000246
 40
0.9218750000000268
 40
0.9218750000000268
 40
0.9375000000000233
 40
0.9375000000000233
 40
0.9687500000000117
 40
0.9687500000000117
 40
1.0
 40
1.0
 40
1.0
 40
1.0
 10
-860.3388926658107
 20
6.005720313747631
 30
0.0
 10
-860.3378380336063
 20
6.005145385581057
 30
0.0
 10
-860.3278709909998
 20
5.995725140481134
 30
0.0
 10
-860.3152020254636
 20
5.982075277584653
 30
0.0
 10
-860.3126900831023
 20
5.979336090213949
 30
0.0
 10
-860.307877409162
 20
5.973935767507765
 30
0.0
 10
-860.3056603771103
 20
5.971495150477624
 30
0.0
 10
-860.3030438465166
 20
5.968379177665906
 30
0.0
 10
-860.3025947238098
 20
5.967927626288006
 30
0.0
 10
-860.3016752728267
 20
5.966917742482536
 30
0.0
 10
-860.3005701823829
 20
5.965997312757487
 30
0.0
 10
-860.302211687715
 20
5.963866518779115
 30
0.0
 10
-860.305031843933
 20
5.963156093607425
 30
0.0
 10
-860.3053849393751
 20
5.964936338365479
 30
0.0
 10
-860.303525259474
 20
5.966964735899916
 30
0.0
 10
-860.2841366972212
 20
5.972501471487091
 30
0.0
 10
-860.2744865375258
 20
5.974806015843992
 30
0.0
 10
-860.2442162425696
 20
5.98048996789019
 30
0.0
 10
-860.2245343365536
 20
5.983754817646291
 30
0.0
 10
-860.1800344669208
 20
5.989548602785055
 30
0.0
 10
-860.1618217042011
 20
5.991740057023409
 30
0.0
 10
-860.1287093604511
 20
5.995248673966946
 30
0.0
 10
-860.1169962355646
 20
5.996405648558079
 30
0.0
 10
-860.0937823674973
 20
5.998378846885033
 30
0.0
 10
-860.0823585306885
 20
5.999178039642228
 30
0.0
 10
-860.0237791597301
 20
6.002839736999555
 30
0.0
 10
-859.9682362025816
 20
6.005681208081482
 30
0.0
 10
-859.7855540567506
 20
6.012314710693467
 30
0.0
 10
-859.6384308208209
 20
6.015236437159011
 30
0.0
 10
-859.2934464366521
 20
6.018876761998082
 30
0.0
 10
-859.0962549454509
 20
6.019484583507539
 30
0.0
 10
-858.8790939912121
 20
6.019453420103293
 30
0.0
  0
SPLINE
  5
17D
330
1F
100
AcDbEntity
  8
0
  6
Continuous
 62
     7
370
    25
100
AcDbSpline
210
0.0
220
0.0
230
1.0
 70
     8
 71
     3
 72
    38
 73
    34
 74
     0
 42
0.00000001
 43
0.00000001
 40
0.0
 40
0.0
 40
0.0
 40
0.0
 40
0.0312499999999999
 40
0.0312499999999999
 40
0.0624999999999997
 40
0.0624999999999997
 40
0.0937499999999996
 40
0.0937499999999996
 40
0.1093749999999954
 40
0.1093749999999954
 40
0.1249999999999912
 40
0.1249999999999912
 40
0.1562499999999843
 40
0.1562499999999843
 40
0.1874999999999774
 40
0.1874999999999774
 40
0.2031249999999739
 40
0.2031249999999739
 40
0.2187499999999704
 40
0.2187499999999704
 40
0.234374999999967
 40
0.234374999999967
 40
0.2499999999999635
 40
0.2499999999999635
 40
0.2812499999999651
 40
0.2812499999999651
 40
0.3124999999999666
 40
0.3124999999999666
 40
0.3749999999999697
 40
0.3749999999999697
 40
0.4999999999999757
 40
0.4999999999999757
 40
1.0
 40
1.0
 40
1.0
 40
1.0
 10
-859.4007124635983
 20
-1.981535880931751
 30
0.0
 10
-859.5968947022246
 20
-1.98148858332714
 30
0.0
 10
-859.7798192593334
 20
-1.982175415731202
 30
0.0
 10
-860.1216555817512
 20
-1.98632717436692
 30
0.0
 10
-860.2817086601802
 20
-1.989825318497562
 30
0.0
 10
-860.5623611628766
 20
-2.000387291119288
 30
0.0
 10
-860.6827611196263
 20
-2.007290434590747
 30
0.0
 10
-860.8231494470782
 20
-2.024757332712179
 30
0.0
 10
-860.8626812332283
 20
-2.03161053255807
 30
0.0
 10
-860.9218203749256
 20
-2.046532377580235
 30
0.0
 10
-860.942177612001
 20
-2.054543587434787
 30
0.0
 10
-860.9901592388329
 20
-2.077224453509052
 30
0.0
 10
-861.0048740452719
 20
-2.090585177554727
 30
0.0
 10
-861.0151724264274
 20
-2.114190062590449
 30
0.0
 10
-861.0121095500995
 20
-2.123582854074213
 30
0.0
 10
-861.007496589383
 20
-2.131965887402054
 30
0.0
 10
-861.005705452579
 20
-2.133938319396567
 30
0.0
 10
-861.0028072938921
 20
-2.136217526260364
 30
0.0
 10
-861.0018788359173
 20
-2.136380848522856
 30
0.0
 10
-861.0013188983891
 20
-2.135343994835448
 30
0.0
 10
-861.0014390750072
 20
-2.134280883844597
 30
0.0
 10
-861.001570835136
 20
-2.133020766062588
 30
0.0
 10
-861.0015729328592
 20
-2.132927655027317
 30
0.0
 10
-861.0016367174007
 20
-2.133348633247878
 30
0.0
 10
-861.0017634753236
 20
-2.134273744363757
 30
0.0
 10
-861.0019241770593
 20
-2.135129450445417
 30
0.0
 10
-861.002005862069
 20
-2.135481692350893
 30
0.0
 10
-861.002271226765
 20
-2.136493891084501
 30
0.0
 10
-861.0024441136171
 20
-2.13683748067045
 30
0.0
 10
-861.0029819255031
 20
-2.137467150441941
 30
0.0
 10
-861.0033639349617
 20
-2.137373675639542
 30
0.0
 10
-861.005305813455
 20
-2.13716284479798
 30
0.0
 10
-861.0069933657076
 20
-2.137474234869596
 30
0.0
 10
-861.0071681933651
 20
-2.137340472535665
 30
0.0
  0
SPLINE
  5
17E
330
1F
100
AcDbEntity
  8
0
  6
Continuous
 62
     7
370
    25
100
AcDbSpline
210
0.0
220
0.0
230
1.0
 70
     8
 71
     3
 72
     9
 73
     5
 74
     0
 42
0.00000001
 43
0.00000001
 40
0.0
 40
0.0
 40
0.0
 40
0.0
 40
0.3435748635403823
 40
1.0
 40
1.0
 40
1.0
 40
1.0
 10
-860.9581886227583
 20
-2.659358384017763
 30
0.0
 10
-860.9717026819613
 20
-2.600853978298734
 30
0.0
 10
-861.0110363487606
 20
-2.430572587174273
 30
0.0
 10
-861.0087011056412
 20
-2.253545501442966
 30
0.0
 10
-861.007168193358
 20
-2.137340472534721
 30
0.0
  0
SPLINE
  5
17F
330
1F
100
AcDbEntity
  8
0
  6
Continuous
 62
     7
370
    25
100
AcDbSpline
210
0.0
220
0.0
230
1.0
 70
     8
 71
     3
 72
    11
 73
     7
 74
     0
 42
0.00000001
 43
0.00000001
 40
0.0
 40
0.0
 40
0.0
 40
0.0
 40
0.2689601533034716
 40
0.6182899460279442
 40
0.8119530611369901
 40
1.0
 40
1.0
 40
1.0
 40
1.0
 10
-860.3802155631364
 20
-3.415835123496191
 30
0.0
 10
-860.3751571044862
 20
-3.415351434629621
 30
0.0
 10
-860.3635286380111
 20
-3.414239522848139
 30
0.0
 10
-860.4192996987307
 20
-3.448728391316491
 30
0.0
 10
-859.8092264962963
 20
-3.389455688610432
 30
0.0
 10
-859.1531658534038
 20
-3.389389991675484
 30
0.0
 10
-858.82996190758
 20
-3.3893576265141
 30
0.0
  0
SPLINE
  5
181
330
1F
100
AcDbEntity
  8
0
  6
Continuous
 62
     7
370
    25
100
AcDbSpline
210
0.0
220
0.0
230
1.0
 70
     8
 71
     3
 72
    20
 73
    16
 74
     0
 42
0.00000001
 43
0.00000001
 40
0.0
 40
0.0
 40
0.0
 40
0.0
 40
0.2499999999999054
 40
0.2499999999999054
 40
0.3749999999998508
 40
0.3749999999998508
 40
0.4374999999998238
 40
0.4374999999998238
 40
0.4999999999997967
 40
0.4999999999997967
 40
0.6249999999998476
 40
0.6249999999998476
 40
0.7499999999998984
 40
0.7499999999998984
 40
1.0
 40
1.0
 40
1.0
 40
1.0
 10
-860.3388926658738
 20
6.005720313717156
 30
0.0
 10
-860.3118782695175
 20
6.169651938959742
 30
0.0
 10
-860.2781545671517
 20
6.370227757620361
 30
0.0
 10
-860.1594386947877
 20
6.685835974315713
 30
0.0
 10
-860.1076640740604
 20
6.794596809443831
 30
0.0
 10
-859.9757050461471
 20
6.960786473604708
 30
0.0
 10
-859.9245521467288
 20
7.014810494299029
 30
0.0
 10
-859.816981944829
 20
7.104680918077588
 30
0.0
 10
-859.7605644430217
 20
7.140525305250723
 30
0.0
 10
-859.5988806507602
 20
7.226948352689888
 30
0.0
 10
-859.5077378164884
 20
7.255872696531995
 30
0.0
 10
-859.3363724408458
 20
7.297885779612212
 30
0.0
 10
-859.2548376544447
 20
7.311084629756381
 30
0.0
 10
-859.0242063955643
 20
7.336459165870002
 30
0.0
 10
-858.8898630766993
 20
7.335000000593062
 30
0.0
 10
-858.772769291595
 20
7.335000000589731
 30
0.0
  0
SPLINE
  5
182
330
1F
100
AcDbEntity
  8
0
  6
Continuous
 62
     7
370
    25
100
AcDbSpline
210
0.0
220
0.0
230
1.0
 70
    24
 71
     3
 72
    26
 73
    22
 74
     0
 42
0.00000001
 43
0.00000001
 40
0.0
 40
0.0
 40
0.0
 40
0.0
 40
0.0312500000000029
 40
0.0312500000000029
 40
0.0625000000000058
 40
0.0625000000000058
 40
0.0781250000000042
 40
0.0781250000000042
 40
0.0937500000000027
 40
0.0937500000000027
 40
0.1249999999999971
 40
0.1249999999999971
 40
0.1874999999999939
 40
0.1874999999999939
 40
0.2499999999999908
 40
0.2499999999999908
 40
0.4999999999999939
 40
0.4999999999999939
 40
0.7499999999999969
 40
0.7499999999999969
 40
1.0
 40
1.0
 40
1.0
 40
1.0
 10
-857.7732256324609
 20
7.335000000589731
 30
0.0
 10
-857.9282454444281
 20
7.335000000589065
 30
0.0
 10
-858.06898480216
 20
7.335000000590175
 30
0.0
 10
-858.3105878135882
 20
7.335000000589897
 30
0.0
 10
-858.4116579358407
 20
7.335000000590064
 30
0.0
 10
-858.5342044127246
 20
7.335000000589897
 30
0.0
 10
-858.570446166904
 20
7.33500000058962
 30
0.0
 10
-858.6308503439268
 20
7.335000000589897
 30
0.0
 10
-858.6532756311593
 20
7.335000000589787
 30
0.0
 10
-858.7041292342308
 20
7.335000000590064
 30
0.0
 10
-858.7188736299508
 20
7.335000000589897
 30
0.0
 10
-858.7406922301836
 20
7.335000000589453
 30
0.0
 10
-858.7279667159315
 20
7.335000000588677
 30
0.0
 10
-858.7295529578897
 20
7.335000000591507
 30
0.0
 10
-858.7310791898708
 20
7.335000000589065
 30
0.0
 10
-858.7376820382174
 20
7.335000000592451
 30
0.0
 10
-858.7437712547684
 20
7.335000000589953
 30
0.0
 10
-858.7561723977351
 20
7.335000000589787
 30
0.0
 10
-858.7622366590441
 20
7.335000000589287
 30
0.0
 10
-858.7710663949115
 20
7.335000000590009
 30
0.0
 10
-858.7750520348551
 20
7.335000000588621
 30
0.0
 10
-858.772723491123
 20
7.335000000589787
 30
0.0
  0
SPLINE
  5
184
330
1F
100
AcDbEntity
  8
0
  6
Continuous
 62
     7
370
    25
100
AcDbSpline
210
0.0
220
0.0
230
1.0
 70
     8
 71
     3
 72
    20
 73
    16
 74
     0
 42
0.00000001
 43
0.00000001
 40
0.0
 40
0.0
 40
0.0
 40
0.0
 40
0.0625000000000024
 40
0.0625000000000024
 40
0.125000000000005
 40
0.125000000000005
 40
0.1875000000000074
 40
0.1875000000000074
 40
0.2500000000000099
 40
0.2500000000000099
 40
0.375000000000007
 40
0.375000000000007
 40
0.5000000000000041
 40
0.5000000000000041
 40
1.0
 40
1.0
 40
1.0
 40
1.0
 10
-854.935327629339
 20
-6.498078480683455
 30
0.0
 10
-855.1896283485727
 20
-6.498024051849183
 30
0.0
 10
-855.4032790901155
 20
-6.495125948114577
 30
0.0
 10
-855.7504051425216
 20
-6.488033999633158
 30
0.0
 10
-855.8828467419938
 20
-6.483977165405664
 30
0.0
 10
-856.0878538429259
 20
-6.47641789094272
 30
0.0
 10
-856.1606403403732
 20
-6.473007087199001
 30
0.0
 10
-856.2691482612032
 20
-6.467135853882366
 30
0.0
 10
-856.3056069443566
 20
-6.464640260705368
 30
0.0
 10
-856.3848816566486
 20
-6.458280141729222
 30
0.0
 10
-856.3983749609037
 20
-6.455483920756899
 30
0.0
 10
-856.4111066327696
 20
-6.451752832776492
 30
0.0
 10
-856.4101775634439
 20
-6.450916775795013
 30
0.0
 10
-856.4153218906739
 20
-6.448682861512289
 30
0.0
 10
-856.4218082101977
 20
-6.447092078134265
 30
0.0
 10
-856.4228490827699
 20
-6.446657369806763
 30
0.0
  0
SPLINE
  5
185
330
1F
100
AcDbEntity
  8
0
  6
Continuous
 62
     7
370
    25
100
AcDbSpline
210
0.0
220
0.0
230
1.0
 70
     8
 71
     3
 72
    10
 73
     6
 74
     0
 42
0.00000001
 43
0.00000001
 40
0.0
 40
0.0
 40
0.0
 40
0.0
 40
0.5
 40
0.5
 40
1.0
 40
1.0
 40
1.0
 40
1.0
 10
-833.221660320661
 20
-7.423836301499676
 30
0.0
 10
-833.2667911824858
 20
-7.436097773567296
 30
0.0
 10
-833.3187327327928
 20
-7.44965568855921
 30
0.0
 10
-833.44529616957
 20
-7.473747565981903
 30
0.0
 10
-833.5165132452902
 20
-7.483633664406075
 30
0.0
 10
-833.580928613537
 20
-7.492224517672119
 30
0.0
  0
SPLINE
  5
186
330
1F
100
AcDbEntity
  8
0
  6
Continuous
 62
     7
370
    25
100
AcDbSpline
210
0.0
220
0.0
230
1.0
 70
     8
 71
     3
 72
    15
 73
    11
 74
     0
 42
0.00000001
 43
0.00000001
 40
0.0
 40
0.0
 40
0.0
 40
0.0
 40
0.0949774962194818
 40
0.1798511793047465
 40
0.2536990995546703
 40
0.4790675977980232
 40
0.5816192597278782
 40
0.723854070922211
 40
0.880140747396881
 40
0.9999999999999999
 40
0.9999999999999999
 40
0.9999999999999999
 40
0.9999999999999999
 10
-833.580837570471
 20
-7.492203063713843
 30
0.0
 10
-833.5879994251419
 20
-7.444989638670629
 30
0.0
 10
-833.6015612483095
 20
-7.355585405973198
 30
0.0
 10
-833.6309539043335
 20
-7.232291334795137
 30
0.0
 10
-833.6928958920741
 20
-7.053255946584624
 30
0.0
 10
-833.8061457935331
 20
-6.893360564937224
 30
0.0
 10
-833.9624374738426
 20
-6.74794353951741
 30
0.0
 10
-834.1029488233221
 20
-6.63966451975273
 30
0.0
 10
-834.2515757518813
 20
-6.540081249936547
 30
0.0
 10
-834.3421453818379
 20
-6.474936747057902
 30
0.0
 10
-834.3814565105273
 20
-6.446661220953609
 30
0.0
  0
SPLINE
  5
187
330
1F
100
AcDbEntity
  8
0
  6
Continuous
 62
     7
370
    25
100
AcDbSpline
210
0.0
220
0.0
230
1.0
 70
     8
 71
     3
 72
    14
 73
    10
 74
     0
 42
0.00000001
 43
0.00000001
 40
0.0
 40
0.0
 40
0.0
 40
0.0
 40
0.25
 40
0.25
 40
0.5
 40
0.5
 40
0.75
 40
0.75
 40
1.0
 40
1.0
 40
1.0
 40
1.0
 10
-854.9353532062577
 20
-6.498071420923013
 30
0.0
 10
-854.8693351735816
 20
-6.550746987261046
 30
0.0
 10
-854.8018246846294
 20
-6.60525232656245
 30
0.0
 10
-854.672696400041
 20
-6.740525109776241
 30
0.0
 10
-854.6127415977733
 20
-6.82013342688087
 30
0.0
 10
-854.5167416240895
 20
-7.002809226913209
 30
0.0
 10
-854.4800445064153
 20
-7.107183973844022
 30
0.0
 10
-854.4256539649327
 20
-7.321294510542309
 30
0.0
 10
-854.4082936586841
 20
-7.428324633288685
 30
0.0
 10
-854.3917323256393
 20
-7.532525639828869
 30
0.0
  0
SPLINE
  5
188
330
1F
100
AcDbEntity
  8
0
  6
Continuous
 62
     7
370
    25
100
AcDbSpline
210
0.0
220
0.0
230
1.0
 70
     8
 71
     3
 72
    22
 73
    18
 74
     0
 42
0.00000001
 43
0.00000001
 40
0.0
 40
0.0
 40
0.0
 40
0.0
 40
0.2825456411408059
 40
0.5300616500931425
 40
0.6151425873492724
 40
0.6869947591641136
 40
0.7443393068697671
 40
0.7877868699785129
 40
0.8145475443976796
 40
0.8432750101426945
 40
0.8732965955668757
 40
0.904048074988574
 40
0.929468859711003
 40
0.9512178569429002
 40
0.9699219863685375
 40
0.986064086813521
 40
1.0
 40
1.0
 40
1.0
 40
1.0
 10
-833.580837600943
 20
-7.492225965495036
 30
0.0
 10
-835.5694163188837
 20
-7.490790770790124
 30
0.0
 10
-839.3000324144492
 20
-7.488098314907877
 30
0.0
 10
-843.6294528850074
 20
-7.478544954668709
 30
0.0
 10
-846.47598522551
 20
-7.473297075309137
 30
0.0
 10
-847.9841085852064
 20
-7.472137115916322
 30
0.0
 10
-849.199051254559
 20
-7.47292613973416
 30
0.0
 10
-850.0959088454639
 20
-7.475501937065198
 30
0.0
 10
-850.7901143701715
 20
-7.480479279502406
 30
0.0
 10
-851.388276625564
 20
-7.486732115844941
 30
0.0
 10
-852.0102137884321
 20
-7.495085442975446
 30
0.0
 10
-852.601170848765
 20
-7.50530601430377
 30
0.0
 10
-853.1216994097299
 20
-7.515268302449918
 30
0.0
 10
-853.5450877019848
 20
-7.522795368827772
 30
0.0
 10
-853.8889701584529
 20
-7.528204161879715
 30
0.0
 10
-854.1666154333889
 20
-7.531725183611393
 30
0.0
 10
-854.32046849079
 20
-7.532274095215231
 30
0.0
 10
-854.3917525482311
 20
-7.532528420003848
 30
0.0
  0
SPLINE
  5
189
330
1F
100
AcDbEntity
  8
0
  6
Continuous
 62
     7
370
    25
100
AcDbSpline
210
0.0
220
0.0
230
1.0
 70
     8
 71
     3
 72
     8
 73
     4
 74
     0
 42
0.00000001
 43
0.00000001
 40
0.0
 40
0.0
 40
0.0
 40
0.0
 40
1.0
 40
1.0
 40
1.0
 40
1.0
 10
-849.3831598545634
 20
-30.06571834400967
 30
0.0
 10
-851.5356000334307
 20
-22.61600878340742
 30
0.0
 10
-853.1450454091563
 20
-15.37597374855126
 30
0.0
 10
-854.3917525464824
 20
-7.532528420003793
 30
0.0
  0
SPLINE
  5
18A
330
1F
100
AcDbEntity
  8
0
  6
Continuous
 62
     7
370
    25
100
AcDbSpline
210
0.0
220
0.0
230
1.0
 70
     8
 71
     3
 72
    10
 73
     6
 74
     0
 42
0.00000001
 43
0.00000001
 40
0.0
 40
0.0
 40
0.0
 40
0.0
 40
0.5000000000000001
 40
0.5000000000000001
 40
1.0
 40
1.0
 40
1.0
 40
1.0
 10
-828.565947883716
 20
-30.11048063487276
 30
0.0
 10
-829.6943920423485
 20
-26.48396026654132
 30
0.0
 10
-830.7031229037561
 20
-22.79153202399514
 30
0.0
 10
-832.3848194067056
 20
-15.24179914437629
 30
0.0
 10
-833.0545091732441
 20
-11.3874423668307
 30
0.0
 10
-833.5808376009434
 20
-7.492225965495036
 30
0.0
  0
SPLINE
  5
18B
330
1F
100
AcDbEntity
  8
0
  6
Continuous
 62
     7
370
    25
100
AcDbSpline
210
0.0
220
0.0
230
1.0
 70
     8
 71
     3
 72
    21
 73
    17
 74
     0
 42
0.00000001
 43
0.00000001
 40
0.0
 40
0.0
 40
0.0
 40
0.0
 40
0.0040712222945872
 40
0.0149509764359984
 40
0.0251619331348442
 40
0.0359210667790357
 40
0.0585725250966546
 40
0.0838217488032284
 40
0.1248210812439616
 40
0.1946499176432304
 40
0.2645081797109285
 40
0.3365054460066806
 40
0.4419958504292279
 40
0.6012817492839447
 40
0.8214027424099943
 40
1.0
 40
1.0
 40
1.0
 40
1.0
 10
-849.3831598550047
 20
-30.06571834400962
 30
0.0
 10
-849.3627541839921
 20
-30.0656103995458
 30
0.0
 10
-849.2878173015532
 20
-30.06521398907791
 30
0.0
 10
-849.1545416676478
 20
-30.06411076088727
 30
0.0
 10
-848.9762005007601
 20
-30.06309483248532
 30
0.0
 10
-848.7196080403321
 20
-30.06230929736814
 30
0.0
 10
-848.352889634563
 20
-30.06243257515051
 30
0.0
 10
-847.7677302898779
 20
-30.06444095652327
 30
0.0
 10
-846.8356653666581
 20
-30.07144865372424
 30
0.0
 10
-845.5696583684951
 20
-30.08215713053719
 30
0.0
 10
-844.0811227864333
 20
-30.09198407354202
 30
0.0
 10
-842.3401163697662
 20
-30.09821573955757
 30
0.0
 10
-839.969787591253
 20
-30.10161681727453
 30
0.0
 10
-836.5568423542346
 20
-30.10528351078995
 30
0.0
 10
-832.6293607520666
 20
-30.10883098371336
 30
0.0
 10
-829.8229977711729
 20
-30.10997030184198
 30
0.0
 10
-828.565947883716
 20
-30.11048063487276
 30
0.0
  0
SPLINE
  5
18C
330
1F
100
AcDbEntity
  8
0
  6
Continuous
 62
     7
370
    25
100
AcDbSpline
210
0.0
220
0.0
230
1.0
 70
     8
 71
     3
 72
    14
 73
    10
 74
     0
 42
0.00000001
 43
0.00000001
 40
0.0
 40
0.0
 40
0.0
 40
0.0
 40
0.0742123292593934
 40
0.1795160825230448
 40
0.3105685120082472
 40
0.4794707751416497
 40
0.7175701129501095
 40
0.8949479882254499
 40
0.9999999999999999
 40
0.9999999999999999
 40
0.9999999999999999
 40
0.9999999999999999
 10
-855.8162973716181
 20
-7.492203063654501
 30
0.0
 10
-855.8214932085223
 20
-7.455302129108055
 30
0.0
 10
-855.8340616900109
 20
-7.366040529622808
 30
0.0
 10
-855.8614590605214
 20
-7.214068738524926
 30
0.0
 10
-855.915391341453
 20
-7.028596819977862
 30
0.0
 10
-856.0193690071932
 20
-6.825270471303213
 30
0.0
 10
-856.1611743850452
 20
-6.661081800127366
 30
0.0
 10
-856.3029742652019
 20
-6.539332699806277
 30
0.0
 10
-856.390345606709
 20
-6.471785814699816
 30
0.0
 10
-856.4228440624944
 20
-6.446661220969152
 30
0.0
  0
SPLINE
  5
18D
330
1F
100
AcDbEntity
  8
0
  6
Continuous
 62
     7
370
    25
100
AcDbSpline
210
0.0
220
0.0
230
1.0
 70
     8
 71
     3
 72
    26
 73
    22
 74
     0
 42
0.00000001
 43
0.00000001
 40
0.0
 40
0.0
 40
0.0
 40
0.0
 40
0.25
 40
0.25
 40
0.375
 40
0.375
 40
0.5
 40
0.5
 40
0.625
 40
0.625
 40
0.6875
 40
0.6875
 40
0.75
 40
0.75
 40
0.8125
 40
0.8125
 40
0.875
 40
0.875
 40
0.9375
 40
0.9375
 40
1.0
 40
1.0
 40
1.0
 40
1.0
 10
-855.816297371608
 20
-7.492203063713843
 30
0.0
 10
-855.8159326419712
 20
-7.49181283424133
 30
0.0
 10
-855.8151890263916
 20
-7.490247951165596
 30
0.0
 10
-855.8133347658821
 20
-7.486011985339324
 30
0.0
 10
-855.8124839569405
 20
-7.484451874745279
 30
0.0
 10
-855.8112980982321
 20
-7.48094429860402
 30
0.0
 10
-855.8114575728038
 20
-7.478790030655603
 30
0.0
 10
-855.8119935683272
 20
-7.474412977094724
 30
0.0
 10
-855.8135345771128
 20
-7.47236340035895
 30
0.0
 10
-855.8046902766341
 20
-7.471539833224183
 30
0.0
 10
-855.7989993786421
 20
-7.471657406930953
 30
0.0
 10
-855.7754470905642
 20
-7.473103682828109
 30
0.0
 10
-855.7580137470586
 20
-7.474379762886175
 30
0.0
 10
-855.699356789147
 20
-7.479176660168896
 30
0.0
 10
-855.6580982088126
 20
-7.48281028635045
 30
0.0
 10
-855.5379603004501
 20
-7.493097766562817
 30
0.0
 10
-855.4587288424896
 20
-7.499567224103554
 30
0.0
 10
-855.2474298016297
 20
-7.513096393812146
 30
0.0
 10
-855.1160989563315
 20
-7.519984050898431
 30
0.0
 10
-854.797870436899
 20
-7.529642067277631
 30
0.0
 10
-854.61083210736
 20
-7.532503456671225
 30
0.0
 10
-854.3917438668423
 20
-7.532525248288402
 30
0.0
  0
SPLINE
  5
18E
330
1F
100
AcDbEntity
  8
0
  6
Continuous
 62
     7
370
    25
100
AcDbSpline
210
0.0
220
0.0
230
1.0
 70
     8
 71
     3
 72
     9
 73
     5
 74
     0
 42
0.00000001
 43
0.00000001
 40
0.0
 40
0.0
 40
0.0
 40
0.0
 40
0.5000000000000001
 40
1.0
 40
1.0
 40
1.0
 40
1.0
 10
-850.7830103188858
 20
-30.11047740058997
 30
0.0
 10
-851.9146365642679
 20
-26.48749276036433
 30
0.0
 10
-853.9435921926162
 20
-19.08847044653977
 30
0.0
 10
-855.2880154549449
 20
-11.38236435560852
 30
0.0
 10
-855.8164658457638
 20
-7.492225965493482
 30
0.0
  0
SPLINE
  5
18F
330
1F
100
AcDbEntity
  8
0
  6
Continuous
 62
     7
370
    25
100
AcDbSpline
210
0.0
220
0.0
230
1.0
 70
     8
 71
     3
 72
    28
 73
    24
 74
     0
 42
0.00000001
 43
0.00000001
 40
0.0
 40
0.0
 40
0.0
 40
0.0
 40
0.0156249999999989
 40
0.0156249999999989
 40
0.0312499999999977
 40
0.0312499999999977
 40
0.0468749999999966
 40
0.0468749999999966
 40
0.0624999999999954
 40
0.0624999999999954
 40
0.0937499999999931
 40
0.0937499999999931
 40
0.1249999999999909
 40
0.1249999999999909
 40
0.187499999999988
 40
0.187499999999988
 40
0.2499999999999852
 40
0.2499999999999852
 40
0.3749999999999876
 40
0.3749999999999876
 40
0.4999999999999901
 40
0.4999999999999901
 40
1.0
 40
1.0
 40
1.0
 40
1.0
 10
-849.3827841490579
 20
-30.06550107092804
 30
0.0
 10
-849.527379418594
 20
-30.06559503020462
 30
0.0
 10
-849.6554507959521
 20
-30.06484330442738
 30
0.0
 10
-849.8702948638083
 20
-30.06305107453938
 30
0.0
 10
-849.957123471979
 20
-30.06228652122789
 30
0.0
 10
-850.1005474170122
 20
-30.06179548835786
 30
0.0
 10
-850.1588642398568
 20
-30.06193451226002
 30
0.0
 10
-850.2617128893886
 20
-30.06275237186701
 30
0.0
 10
-850.305236037214
 20
-30.06343351838131
 30
0.0
 10
-850.4183616794525
 20
-30.06596895070546
 30
0.0
 10
-850.4715454526869
 20
-30.06823872769465
 30
0.0
 10
-850.5592590280451
 20
-30.07262652344539
 30
0.0
 10
-850.5924386642766
 20
-30.07486021112338
 30
0.0
 10
-850.6736246751162
 20
-30.08121848999051
 30
0.0
 10
-850.7041160704272
 20
-30.08470603504338
 30
0.0
 10
-850.7480399603897
 20
-30.09018861913421
 30
0.0
 10
-850.7601752785591
 20
-30.09232662493066
 30
0.0
 10
-850.7833008267088
 20
-30.09767066991431
 30
0.0
 10
-850.7812239578175
 20
-30.09974909679064
 30
0.0
 10
-850.7807495004492
 20
-30.10200057916845
 30
0.0
 10
-850.780485126894
 20
-30.10259925051295
 30
0.0
 10
-850.7808157772597
 20
-30.10674883570053
 30
0.0
 10
-850.7827674642726
 20
-30.10994793649319
 30
0.0
 10
-850.7830122020291
 20
-30.11048296838042
 30
0.0
  0
SPLINE
  5
192
330
1F
100
AcDbEntity
  8
0
  6
Continuous
 62
     7
370
    25
100
AcDbSpline
210
0.0
220
0.0
230
1.0
 70
     8
 71
     3
 72
    14
 73
    10
 74
     0
 42
0.00000001
 43
0.00000001
 40
0.0
 40
0.0
 40
0.0
 40
0.0
 40
0.115382414140635
 40
0.2335499116144808
 40
0.3558800211054324
 40
0.4816376965335651
 40
0.6598813028669877
 40
0.8343537618871479
 40
1.0
 40
1.0
 40
1.0
 40
1.0
 10
-828.2632378544173
 20
-30.80972814216104
 30
0.0
 10
-828.283134163962
 20
-30.7905444059326
 30
0.0
 10
-828.3234070371745
 20
-30.75171387934012
 30
0.0
 10
-828.3733834344015
 20
-30.68550739155129
 30
0.0
 10
-828.4161853337869
 20
-30.61028889468376
 30
0.0
 10
-828.4549662654329
 20
-30.51292083035856
 30
0.0
 10
-828.4919217590925
 20
-30.39177241123453
 30
0.0
 10
-828.5305285634025
 20
-30.25161020103323
 30
0.0
 10
-828.5543474807384
 20
-30.15670443126783
 30
0.0
 10
-828.5659478840266
 20
-30.11048296838042
 30
0.0
  0
SPLINE
  5
193
330
1F
100
AcDbEntity
  8
0
  6
Continuous
 62
     7
370
    25
100
AcDbSpline
210
0.0
220
0.0
230
1.0
 70
     8
 71
     3
 72
    14
 73
    10
 74
     0
 42
0.00000001
 43
0.00000001
 40
0.0
 40
0.0
 40
0.0
 40
0.0
 40
0.25
 40
0.25
 40
0.5
 40
0.5
 40
0.75
 40
0.75
 40
1.0
 40
1.0
 40
1.0
 40
1.0
 10
-848.9606884900071
 20
-30.7911864308198
 30
0.0
 10
-849.005674546774
 20
-30.74937855308601
 30
0.0
 10
-849.0514896057928
 20
-30.70646484816503
 30
0.0
 10
-849.1411217110277
 20
-30.60583225387647
 30
0.0
 10
-849.1839708480561
 20
-30.54881247689956
 30
0.0
 10
-849.2577329374282
 20
-30.42205333278192
 30
0.0
 10
-849.2890670091597
 20
-30.35158516709391
 30
0.0
 10
-849.3416587608214
 20
-30.20778681708597
 30
0.0
 10
-849.3626124563046
 20
-30.1359476096521
 30
0.0
 10
-849.3829531902418
 20
-30.06550118337925
 30
0.0
  0
SPLINE
  5
194
330
1F
100
AcDbEntity
  8
0
  6
Continuous
 62
     7
370
    25
100
AcDbSpline
210
0.0
220
0.0
230
1.0
 70
     8
 71
     3
 72
    25
 73
    21
 74
     0
 42
0.00000001
 43
0.00000001
 40
0.0
 40
0.0
 40
0.0
 40
0.0
 40
0.1835627910976851
 40
0.3816904516121543
 40
0.4640670894890525
 40
0.5603992234693328
 40
0.6698978874901153
 40
0.7317335337274471
 40
0.7788209179713647
 40
0.8124772386518077
 40
0.8342753046737761
 40
0.8563279434838188
 40
0.8772873078876114
 40
0.8972017571140224
 40
0.9161369064378396
 40
0.9341787427287833
 40
0.9514352565635367
 40
0.9680425140650929
 40
0.9841596756921542
 40
1.0
 40
1.0
 40
1.0
 40
1.0
 10
-828.2632378542587
 20
-30.80972927661751
 30
0.0
 10
-829.5468333864283
 20
-30.81004610697091
 30
0.0
 10
-832.2158718959838
 20
-30.81070490671972
 30
0.0
 10
-835.4609416140559
 20
-30.81244873485206
 30
0.0
 10
-838.0960375869096
 20
-30.81461306158373
 30
0.0
 10
-840.1113728268186
 20
-30.81644779800308
 30
0.0
 10
-841.9830985999513
 20
-30.81810333285539
 30
0.0
 10
-843.5103876630961
 20
-30.81946658367174
 30
0.0
 10
-844.5067066330316
 20
-30.82016231843948
 30
0.0
 10
-845.2219678307305
 20
-30.82059787940577
 30
0.0
 10
-845.7610454169183
 20
-30.82068750915806
 30
0.0
 10
-846.2101481539885
 20
-30.81986860707309
 30
0.0
 10
-846.6435554120106
 20
-30.8183421710227
 30
0.0
 10
-847.0516485952899
 20
-30.81613640768166
 30
0.0
 10
-847.4344022160035
 20
-30.81331626326445
 30
0.0
 10
-847.79170320444
 20
-30.80992418543388
 30
0.0
 10
-848.123673440526
 20
-30.8060021829365
 30
0.0
 10
-848.4296184747252
 20
-30.80156997449207
 30
0.0
 10
-848.7113343523018
 20
-30.79668795382451
 30
0.0
 10
-848.8781406530641
 20
-30.79302337690831
 30
0.0
 10
-848.9608213090471
 20
-30.79120696096987
 30
0.0
  0
SPLINE
  5
195
330
1F
100
AcDbEntity
  8
0
  6
Continuous
 62
     7
370
    25
100
AcDbSpline
210
0.0
220
0.0
230
1.0
 70
     8
 71
     3
 72
    32
 73
    28
 74
     0
 42
0.00000001
 43
0.00000001
 40
0.0
 40
0.0
 40
0.0
 40
0.0
 40
0.024486180106847
 40
0.0479511248121433
 40
0.070395875864741
 40
0.0918211572350761
 40
0.1122274313404813
 40
0.1316149474550514
 40
0.1499837832989267
 40
0.1673338806958034
 40
0.1836650760871603
 40
0.1989771265986373
 40
0.2132697322676529
 40
0.2265425549628366
 40
0.2387952344545231
 40
0.2500274008580026
 40
0.344845219475062
 40
0.4999781061062177
 40
0.6387603424228299
 40
0.7499310375783766
 40
0.7755516372715825
 40
0.8045416605031961
 40
0.8368995910924895
 40
0.8726242002798614
 40
0.9117149417028069
 40
0.9541725613048817
 40
1.0
 40
1.0
 40
1.0
 40
1.0
 10
-782.2452941883884
 20
-66.17703485706127
 30
0.0
 10
-782.634419525862
 20
-65.92631487434502
 30
0.0
 10
-783.3964411047015
 20
-65.43533158778631
 30
0.0
 10
-784.5118711294868
 20
-64.7043453277229
 30
0.0
 10
-785.5767609080378
 20
-63.99881474819858
 30
0.0
 10
-786.5913006741602
 20
-63.3191979002145
 30
0.0
 10
-787.5559250637752
 20
-62.66675884197226
 30
0.0
 10
-788.4709468698554
 20
-62.04242131817955
 30
0.0
 10
-789.3366539895206
 20
-61.44706601728917
 30
0.0
 10
-790.1532904082541
 20
-60.88146659760834
 30
0.0
 10
-790.9210659149061
 20
-60.34631517084588
 30
0.0
 10
-791.6401582272418
 20
-59.84222501792458
 30
0.0
 10
-792.3107175477671
 20
-59.36973859944978
 30
0.0
 10
-792.9328676074733
 20
-58.92933311409293
 30
0.0
 10
-793.5067162151136
 20
-58.52142826145251
 30
0.0
 10
-795.3520897421141
 20
-57.20470431381436
 30
0.0
 10
-799.4117373183706
 20
-54.25981227941678
 30
0.0
 10
-805.4119894582547
 20
-49.75304780358613
 30
0.0
 10
-811.6079527167525
 20
-44.91227029517941
 30
0.0
 10
-815.786587890096
 20
-41.52974397080689
 30
0.0
 10
-818.2880826794956
 20
-39.464411624267
 30
0.0
 10
-819.5974821145602
 20
-38.37398098376038
 30
0.0
 10
-821.0548036578558
 20
-37.14710837578544
 30
0.0
 10
-822.6580715369596
 20
-35.77954401738864
 30
0.0
 10
-824.4045082574376
 20
-34.26520230730995
 30
0.0
 10
-826.2922659883079
 20
-32.5998800012573
 30
0.0
 10
-827.5897391544185
 20
-31.4214397765954
 30
0.0
 10
-828.2632378542588
 20
-30.80972927661751
 30
0.0
  0
SPLINE
  5
196
330
1F
100
AcDbEntity
  8
0
  6
Continuous
 62
     7
370
    25
100
AcDbSpline
210
0.0
220
0.0
230
1.0
 70
     8
 71
     3
 72
     8
 73
     4
 74
     0
 42
0.00000001
 43
0.00000001
 40
0.0
 40
0.0
 40
0.0
 40
0.0
 40
1.0
 40
1.0
 40
1.0
 40
1.0
 10
-802.7706440793338
 20
-66.29372501365155
 30
0.0
 10
-813.7598973677448
 20
-59.47483748739779
 30
0.0
 10
-838.8469786536942
 20
-40.18962967897632
 30
0.0
 10
-848.960820155631
 20
-30.79120696097099
 30
0.0
  0
SPLINE
  5
197
330
1F
100
AcDbEntity
  8
0
  6
Continuous
 62
     7
370
    25
100
AcDbSpline
210
0.0
220
0.0
230
1.0
 70
     8
 71
     3
 72
    28
 73
    24
 74
     0
 42
0.00000001
 43
0.00000001
 40
0.0
 40
0.0
 40
0.0
 40
0.0
 40
0.0095457661093978
 40
0.0196429074700185
 40
0.030319740516792
 40
0.0416142705248271
 40
0.05357293080429
 40
0.0662425208237255
 40
0.0796770584961354
 40
0.0939344549013018
 40
0.1090759217374826
 40
0.1251617367388626
 40
0.1422296257105858
 40
0.1690858563372027
 40
0.1990103600607779
 40
0.2319381222344976
 40
0.2675517007961074
 40
0.3023327607477885
 40
0.3830643651965488
 40
0.4248426256718292
 40
0.5024087460276612
 40
0.7690633928098825
 40
1.0
 40
1.0
 40
1.0
 40
1.0
 10
-802.7706445467702
 20
-66.29372501365444
 30
0.0
 10
-802.7230269866461
 20
-66.29362526800209
 30
0.0
 10
-802.6250414172598
 20
-66.29342001526523
 30
0.0
 10
-802.4649223532122
 20
-66.29185913433894
 30
0.0
 10
-802.2885770928816
 20
-66.28938266579532
 30
0.0
 10
-802.0939385762639
 20
-66.28586818425013
 30
0.0
 10
-801.8798869338134
 20
-66.28132690083439
 30
0.0
 10
-801.6457084960559
 20
-66.27572304761125
 30
0.0
 10
-801.3903150119224
 20
-66.26902754850545
 30
0.0
 10
-801.1127788182431
 20
-66.26121288527415
 30
0.0
 10
-800.8121538171864
 20
-66.25220235174972
 30
0.0
 10
-800.4875855162861
 20
-66.24210569711686
 30
0.0
 10
-800.0798446099714
 20
-66.22823197171817
 30
0.0
 10
-799.5716281030552
 20
-66.2134560582125
 30
0.0
 10
-798.949383933539
 20
-66.20139181550854
 30
0.0
 10
-798.264493046614
 20
-66.19260080004757
 30
0.0
 10
-797.5454209245294
 20
-66.18707713703448
 30
0.0
 10
-796.4934983132184
 20
-66.18678099639547
 30
0.0
 10
-795.3987116226357
 20
-66.18583181382203
 30
0.0
 10
-794.0061079829882
 20
-66.18433984122379
 30
0.0
 10
-791.3194187376552
 20
-66.18113606039044
 30
0.0
 10
-787.3161133652818
 20
-66.17769537137208
 30
0.0
 10
-783.8526970604183
 20
-66.17724423400078
 30
0.0
 10
-782.2452941883884
 20
-66.17703485706127
 30
0.0
  0
SPLINE
  5
199
330
1F
100
AcDbEntity
  8
0
  6
Continuous
 62
     7
370
    25
100
AcDbSpline
210
0.0
220
0.0
230
1.0
 70
     8
 71
     3
 72
    13
 73
     9
 74
     0
 42
0.00000001
 43
0.00000001
 40
0.0
 40
0.0
 40
0.0
 40
0.0
 40
0.005398695718372
 40
0.2586521096238351
 40
0.4867606779988817
 40
0.6856033114158435
 40
0.8557012973756074
 40
1.0
 40
1.0
 40
1.0
 40
1.0
 10
-817.6022034350605
 20
-17.23574914669429
 30
0.0
 10
-817.6027910239894
 20
-17.23943033881853
 30
0.0
 10
-817.6309424746455
 20
-17.41579666108195
 30
0.0
 10
-817.8256448610606
 20
-17.71077249136166
 30
0.0
 10
-818.1442164533837
 20
-18.05498943786504
 30
0.0
 10
-818.5065702948563
 20
-18.26358335566253
 30
0.0
 10
-818.847650348613
 20
-18.37147435763414
 30
0.0
 10
-819.0650361996495
 20
-18.38329300808811
 30
0.0
 10
-819.1648098213591
 20
-18.38871741613435
 30
0.0
  0
SPLINE
  5
19A
330
1F
100
AcDbEntity
  8
0
  6
Continuous
 62
     7
370
    25
100
AcDbSpline
210
0.0
220
0.0
230
1.0
 70
     8
 71
     3
 72
    13
 73
     9
 74
     0
 42
0.00000001
 43
0.00000001
 40
0.0
 40
0.0
 40
0.0
 40
0.0
 40
0.1429658182291727
 40
0.3114926123000606
 40
0.5084985400613938
 40
0.7345000738916048
 40
0.9854141907880495
 40
1.0
 40
1.0
 40
1.0
 40
1.0
 10
-819.164809821359
 20
-18.38871741613435
 30
0.0
 10
-819.2645814729499
 20
-18.38329249471754
 30
0.0
 10
-819.4819630315108
 20
-18.37147272573653
 30
0.0
 10
-819.8230818802108
 20
-18.26359183289416
 30
0.0
 10
-820.1852497175431
 20
-18.05494944641145
 30
0.0
 10
-820.5046696990604
 20
-17.71095357191649
 30
0.0
 10
-820.7006747974681
 20
-17.40969567430673
 30
0.0
 10
-820.7289629468631
 20
-17.22674344669634
 30
0.0
 10
-820.7305170171642
 20
-17.21669257276226
 30
0.0
  0
SPLINE
  5
19B
330
1F
100
AcDbEntity
  8
0
  6
Continuous
 62
     7
370
    25
100
AcDbSpline
210
0.0
220
0.0
230
1.0
 70
     8
 71
     3
 72
    15
 73
    11
 74
     0
 42
0.00000001
 43
0.00000001
 40
0.0
 40
0.0
 40
0.0
 40
0.0
 40
0.2500000000000586
 40
0.2500000000000586
 40
0.5000000000001172
 40
0.5000000000001172
 40
0.6250000000000745
 40
0.7500000000000318
 40
0.7500000000000318
 40
1.0
 40
1.0
 40
1.0
 40
1.0
 10
-850.3378812687247
 20
-30.80973006558147
 30
0.0
 10
-850.3706099172695
 20
-30.77985949443313
 30
0.0
 10
-850.4083901219653
 20
-30.74499747244425
 30
0.0
 10
-850.4976973237898
 20
-30.65678223658513
 30
0.0
 10
-850.5498107683907
 20
-30.6018028038586
 30
0.0
 10
-850.6275101304659
 20
-30.48452905795357
 30
0.0
 10
-850.6776861382027
 20
-30.39881363744173
 30
0.0
 10
-850.7089894164208
 20
-30.32442488578124
 30
0.0
 10
-850.7487677076182
 20
-30.22026816886897
 30
0.0
 10
-850.767456901369
 20
-30.16028540837107
 30
0.0
 10
-850.7830126088395
 20
-30.11048166607955
 30
0.0
  0
SPLINE
  5
19C
330
1F
100
AcDbEntity
  8
0
  6
Continuous
 62
     7
370
    25
100
AcDbSpline
210
0.0
220
0.0
230
1.0
 70
     8
 71
     3
 72
    11
 73
     7
 74
     0
 42
0.00000001
 43
0.00000001
 40
0.0
 40
0.0
 40
0.0
 40
0.0
 40
0.2245849697408445
 40
0.4830210738099533
 40
0.7414587555501442
 40
1.0
 40
1.0
 40
1.0
 40
1.0
 10
-805.8028458882893
 20
-65.1218271800455
 30
0.0
 10
-809.2394710306904
 20
-62.82717023567125
 30
0.0
 10
-816.6307152821662
 20
-57.89198840860538
 30
0.0
 10
-827.7129687843383
 20
-49.58485667242579
 30
0.0
 10
-839.187214582514
 20
-40.59375010262334
 30
0.0
 10
-846.6204943936145
 20
-34.07150611765625
 30
0.0
 10
-850.337878827191
 20
-30.80973084780886
 30
0.0
  0
SPLINE
  5
19D
330
1F
100
AcDbEntity
  8
0
  6
Continuous
 62
     7
370
    25
100
AcDbSpline
210
0.0
220
0.0
230
1.0
 70
     8
 71
     3
 72
    22
 73
    18
 74
     0
 42
0.00000001
 43
0.00000001
 40
0.0
 40
0.0
 40
0.0
 40
0.0
 40
0.5000000000007431
 40
0.5000000000007431
 40
0.7500000000009595
 40
0.7500000000009595
 40
0.8750000000009129
 40
0.8750000000009129
 40
0.9375000000008895
 40
0.9375000000008895
 40
0.96875000000066
 40
0.9843750000005461
 40
0.9921875000002731
 40
0.9960937500001367
 40
0.9980468750000684
 40
0.9980468750000684
 40
1.0
 40
1.0
 40
1.0
 40
1.0
 10
-860.858386478526
 20
-2.140198559876627
 30
0.0
 10
-860.9037847002186
 20
-2.139648545445183
 30
0.0
 10
-860.9519816682064
 20
-2.139103114285945
 30
0.0
 10
-860.9912779241381
 20
-2.138351660368076
 30
0.0
 10
-860.9991044355303
 20
-2.138117086517344
 30
0.0
 10
-861.0050448611156
 20
-2.13779933893915
 30
0.0
 10
-861.0061011400217
 20
-2.137699228543788
 30
0.0
 10
-861.0068977352281
 20
-2.137556344825264
 30
0.0
 10
-861.0070340154065
 20
-2.137509891312617
 30
0.0
 10
-861.0071362160257
 20
-2.137441322743683
 30
0.0
 10
-861.0071619249479
 20
-2.137407310512984
 30
0.0
 10
-861.0071691749313
 20
-2.137367894953557
 30
0.0
 10
-861.0071699401295
 20
-2.137348221485702
 30
0.0
 10
-861.0071699638721
 20
-2.137338389139765
 30
0.0
 10
-861.0071699356232
 20
-2.137334175751182
 30
0.0
 10
-861.007169912545
 20
-2.137331366877881
 30
0.0
 10
-861.0072443425059
 20
-2.136238836043636
 30
0.0
 10
-861.0071690727019
 20
-2.137340467608662
 30
0.0
  0
SPLINE
  5
19E
330
1F
100
AcDbEntity
  8
0
  6
Continuous
 62
     7
370
    25
100
AcDbSpline
210
0.0
220
0.0
230
1.0
 70
     8
 71
     3
 72
    16
 73
    12
 74
     0
 42
0.00000001
 43
0.00000001
 40
0.0
 40
0.0
 40
0.0
 40
0.0
 40
0.0884532354292908
 40
0.1812221774510919
 40
0.2794935810881693
 40
0.3834350439668406
 40
0.4923899817978556
 40
0.6522984088535619
 40
0.7904309740753105
 40
0.9056575389496881
 40
0.9999999999999999
 40
0.9999999999999999
 40
0.9999999999999999
 40
0.9999999999999999
 10
-781.6633327209685
 20
-66.42749999941022
 30
0.0
 10
-781.685462686943
 20
-66.42750307847578
 30
0.0
 10
-781.7308023582548
 20
-66.42750938683706
 30
0.0
 10
-781.793386795085
 20
-66.42591130870412
 30
0.0
 10
-781.8532813437262
 20
-66.42036375464826
 30
0.0
 10
-781.910465449011
 20
-66.40803780566262
 30
0.0
 10
-781.9718545891469
 20
-66.38236849629409
 30
0.0
 10
-782.0374434713902
 20
-66.33739466315514
 30
0.0
 10
-782.110312023121
 20
-66.27832251280368
 30
0.0
 10
-782.1772314607708
 20
-66.2235300153981
 30
0.0
 10
-782.2241656506692
 20
-66.19147616001302
 30
0.0
 10
-782.2452941879756
 20
-66.17704635775662
 30
0.0
  0
SPLINE
  5
19F
330
1F
100
AcDbEntity
  8
0
  6
Continuous
 62
     7
370
    25
100
AcDbSpline
210
0.0
220
0.0
230
1.0
 70
     8
 71
     3
 72
    14
 73
    10
 74
     0
 42
0.00000001
 43
0.00000001
 40
0.0
 40
0.0
 40
0.0
 40
0.0
 40
0.25
 40
0.25
 40
0.5
 40
0.5
 40
0.75
 40
0.75
 40
1.0
 40
1.0
 40
1.0
 40
1.0
 10
-802.3196333168296
 20
-66.42749999941022
 30
0.0
 10
-802.3561797855265
 20
-66.42749999941022
 30
0.0
 10
-802.3935099384688
 20
-66.42741999047807
 30
0.0
 10
-802.4717853839221
 20
-66.42061494828778
 30
0.0
 10
-802.5120326892884
 20
-66.41379205277647
 30
0.0
 10
-802.590549583047
 20
-66.39050224138838
 30
0.0
 10
-802.6292396196263
 20
-66.37392194891845
 30
0.0
 10
-802.7027591835483
 20
-66.33572962151496
 30
0.0
 10
-802.7370236948216
 20
-66.314578743007
 30
0.0
 10
-802.7706304150897
 20
-66.29372440426584
 30
0.0
  0
SPLINE
  5
1A0
330
1F
100
AcDbEntity
  8
0
  6
Continuous
 62
     7
370
    25
100
AcDbSpline
210
0.0
220
0.0
230
1.0
 70
    24
 71
     3
 72
    55
 73
    51
 74
     0
 42
0.00000001
 43
0.00000001
 40
0.0
 40
0.0
 40
0.0
 40
0.0
 40
0.2500000000056279
 40
0.3750000000084339
 40
0.437500000009829
 40
0.4687500000105265
 40
0.4765625000106969
 40
0.4804687500107822
 40
0.4814453125108035
 40
0.481933593760822
 40
0.481933593760822
 40
0.4824218750108405
 40
0.4824218750108405
 40
0.4843750000108111
 40
0.5000000000107258
 40
0.6250000000100441
 40
0.6875000000096957
 40
0.7187500000095272
 40
0.7343750000094429
 40
0.738281250009417
 40
0.7402343750093994
 40
0.7402343750093994
 40
0.7412109375093858
 40
0.7412109375093858
 40
0.7421875000093723
 40
0.7500000000092388
 40
0.7812500000086787
 40
0.7968750000083986
 40
0.8046875000082586
 40
0.8051757812582361
 40
0.8051757812582361
 40
0.8056640625082135
 40
0.8056640625082135
 40
0.8066406250081685
 40
0.8085937500080782
 40
0.8125000000079117
 40
0.8437500000065932
 40
0.8593750000059421
 40
0.8671875000056076
 40
0.8671875000056076
 40
0.8710937500054399
 40
0.8710937500054399
 40
0.8750000000052721
 40
0.9375000000026319
 40
0.9687500000013118
 40
0.9843750000006568
 40
0.9921875000003322
 40
0.9960937500001661
 40
0.9960937500001661
 40
1.0
 40
1.0
 40
1.0
 40
1.0
 10
-781.663332720968
 20
-66.42749999941022
 30
0.0
 10
-783.3826430241736
 20
-66.42749999941022
 30
0.0
 10
-785.9802663026023
 20
-66.42749999941022
 30
0.0
 10
-789.0434779851009
 20
-66.42749999941022
 30
0.0
 10
-790.5832466240972
 20
-66.42749999941022
 30
0.0
 10
-791.3000341416804
 20
-66.42749999941017
 30
0.0
 10
-791.6036244421834
 20
-66.42749999941022
 30
0.0
 10
-791.6933511847842
 20
-66.42749999941017
 30
0.0
 10
-791.7313177183843
 20
-66.42749999941022
 30
0.0
 10
-791.7416726544822
 20
-66.42749999941022
 30
0.0
 10
-791.7485760404061
 20
-66.42749999941022
 30
0.0
 10
-791.7537217275167
 20
-66.42749999941022
 30
0.0
 10
-791.7589612897284
 20
-66.42749999941022
 30
0.0
 10
-791.7973262354826
 20
-66.42749999941017
 30
0.0
 10
-792.1552357147791
 20
-66.42749999941022
 30
0.0
 10
-793.1976955447016
 20
-66.42749999941022
 30
0.0
 10
-795.0850481319313
 20
-66.42749999941022
 30
0.0
 10
-796.2199003104528
 20
-66.42749999941027
 30
0.0
 10
-796.7911760809048
 20
-66.42749999941017
 30
0.0
 10
-797.0406930940051
 20
-66.42749999941017
 30
0.0
 10
-797.1093832862789
 20
-66.42749999941017
 30
0.0
 10
-797.14383506546
 20
-66.42749999941022
 30
0.0
 10
-797.1562310073094
 20
-66.42749999941022
 30
0.0
 10
-797.1736913814112
 20
-66.42749999941022
 30
0.0
 10
-797.2519997911961
 20
-66.42749999941022
 30
0.0
 10
-797.5979438818749
 20
-66.42749999941022
 30
0.0
 10
-798.0049269920169
 20
-66.42749999941017
 30
0.0
 10
-798.3332790320429
 20
-66.42749999941017
 30
0.0
 10
-798.4597325029664
 20
-66.42749999941022
 30
0.0
 10
-798.5014906128416
 20
-66.42749999941017
 30
0.0
 10
-798.5063887052323
 20
-66.42749999941022
 30
0.0
 10
-798.5074728494177
 20
-66.42749999941017
 30
0.0
 10
-798.5194640285905
 20
-66.42749999941017
 30
0.0
 10
-798.5433917315404
 20
-66.42749999941022
 30
0.0
 10
-798.5988404506584
 20
-66.42749999941022
 30
0.0
 10
-798.8956939729569
 20
-66.42749999941022
 30
0.0
 10
-799.2678096156704
 20
-66.42749999941022
 30
0.0
 10
-799.619578304289
 20
-66.42749999941017
 30
0.0
 10
-799.7598424778
 20
-66.42749999941022
 30
0.0
 10
-799.8282255918513
 20
-66.42749999941022
 30
0.0
 10
-799.8466034999522
 20
-66.42749999941022
 30
0.0
 10
-799.9122777566307
 20
-66.42749999941022
 30
0.0
 10
-800.4662874254344
 20
-66.42749999941022
 30
0.0
 10
-801.1754697024346
 20
-66.42749999941022
 30
0.0
 10
-801.8028799283217
 20
-66.42749999941022
 30
0.0
 10
-802.0748665601768
 20
-66.42749999941022
 30
0.0
 10
-802.2004302558335
 20
-66.42749999941022
 30
0.0
 10
-802.2520083496269
 20
-66.42749999941022
 30
0.0
 10
-802.2858970969056
 20
-66.42749999941022
 30
0.0
 10
-802.3012586097918
 20
-66.42749999941022
 30
0.0
 10
-802.319623095486
 20
-66.42749999941022
 30
0.0
  0
SPLINE
  5
1A2
330
1F
100
AcDbEntity
  8
0
  6
Continuous
 62
     7
370
    25
100
AcDbSpline
210
0.0
220
0.0
230
1.0
 70
    24
 71
     3
 72
    12
 73
     8
 74
     0
 42
0.00000001
 43
0.00000001
 40
0.0
 40
0.0
 40
0.0
 40
0.0
 40
0.1050754115297952
 40
0.6070724202267724
 40
0.7384687377228986
 40
0.8695152684080847
 40
1.0
 40
1.0
 40
1.0
 40
1.0
 10
-803.4026547848734
 20
-66.42749999941027
 30
0.0
 10
-803.4023864062952
 20
-66.42749999941022
 30
0.0
 10
-803.4008358510262
 20
-66.42749999941027
 30
0.0
 10
-803.4608989150468
 20
-66.42749999941027
 30
0.0
 10
-803.3519655101951
 20
-66.42749999941022
 30
0.0
 10
-803.1257379878164
 20
-66.42749999941022
 30
0.0
 10
-802.5879429778455
 20
-66.42749999941022
 30
0.0
 10
-802.319623095486
 20
-66.42749999941022
 30
0.0
  0
SPLINE
  5
1A6
330
1F
100
AcDbEntity
  8
0
  6
Continuous
 62
     7
370
    25
100
AcDbSpline
210
0.0
220
0.0
230
1.0
 70
     8
 71
     3
 72
    10
 73
     6
 74
     0
 42
0.00000001
 43
0.00000001
 40
0.0
 40
0.0
 40
0.0
 40
0.0
 40
0.5
 40
0.5
 40
1.0
 40
1.0
 40
1.0
 40
1.0
 10
838.7669764191872
 20
-2.137340462685655
 30
0.0
 10
838.759447234742
 20
-0.774065895671916
 30
0.0
 10
838.7286077681002
 20
0.5999270292165737
 30
0.0
 10
838.5108457728614
 20
3.325186920439427
 30
0.0
 10
838.3239227712997
 20
4.676454233906613
 30
0.0
 10
838.1060078010238
 20
6.005744813694869
 30
0.0
  0
SPLINE
  5
1A7
330
1F
100
AcDbEntity
  8
0
  6
Continuous
 62
     7
370
    25
100
AcDbSpline
210
0.0
220
0.0
230
1.0
 70
     8
 71
     3
 72
    36
 73
    32
 74
     0
 42
0.00000001
 43
0.00000001
 40
0.0
 40
0.0
 40
0.0
 40
0.0
 40
0.5000000000000379
 40
0.5000000000000379
 40
0.6250000000000473
 40
0.6250000000000473
 40
0.7500000000000568
 40
0.7500000000000568
 40
0.7812500000000634
 40
0.7812500000000634
 40
0.8125000000000699
 40
0.8125000000000699
 40
0.8437500000000765
 40
0.8437500000000765
 40
0.8750000000000832
 40
0.8750000000000832
 40
0.8906250000000862
 40
0.8906250000000862
 40
0.9062500000000893
 40
0.9062500000000893
 40
0.9140625000000913
 40
0.9140625000000913
 40
0.9179687500000876
 40
0.9179687500000876
 40
0.9218750000000839
 40
0.9218750000000839
 40
0.9375000000000671
 40
0.9375000000000671
 40
0.9687500000000336
 40
0.9687500000000336
 40
1.0
 40
1.0
 40
1.0
 40
1.0
 10
838.1060077600091
 20
6.00572031374591
 30
0.0
 10
841.4291867531009
 20
6.00514538557928
 30
0.0
 10
844.7528477210965
 20
5.995725140479358
 30
0.0
 10
848.903769358321
 20
5.982075277582821
 30
0.0
 10
849.7342217670648
 20
5.979336090212117
 30
0.0
 10
851.39367519833
 20
5.973935767505989
 30
0.0
 10
852.2249662050098
 20
5.971495150475792
 30
0.0
 10
853.2602220998083
 20
5.968379177664129
 30
0.0
 10
853.4689014756157
 20
5.967927626286174
 30
0.0
 10
853.884789695198
 20
5.966917742480704
 30
0.0
 10
854.0884139140962
 20
5.965997312755656
 30
0.0
 10
854.4907971742763
 20
5.963866518777284
 30
0.0
 10
854.6945914448776
 20
5.963156093605648
 30
0.0
 10
855.1350158748355
 20
5.964936338363646
 30
0.0
 10
855.366678404604
 20
5.966964735898084
 30
0.0
 10
855.7429828986947
 20
5.972501471485314
 30
0.0
 10
855.873966923481
 20
5.974806015842216
 30
0.0
 10
856.1507355794527
 20
5.980489967888413
 30
0.0
 10
856.2946847415088
 20
5.98375481764446
 30
0.0
 10
856.5260900256505
 20
5.989548602783223
 30
0.0
 10
856.60763901814
 20
5.991740057021577
 30
0.0
 10
856.7346639712515
 20
5.995248673965115
 30
0.0
 10
856.77701228635
 20
5.996405648556302
 30
0.0
 10
856.8568875816171
 20
5.998378846883257
 30
0.0
 10
856.8941509759654
 20
5.999178039640396
 30
0.0
 10
857.076551021585
 20
6.002839736997778
 30
0.0
 10
857.225530387661
 20
6.00568120807965
 30
0.0
 10
857.6489613831344
 20
6.01231471069169
 30
0.0
 10
857.9164820871571
 20
6.015236437157179
 30
0.0
 10
858.4243408602338
 20
6.01887676199625
 30
0.0
 10
858.6623699559855
 20
6.019484583505708
 30
0.0
 10
858.8790939938494
 20
6.019453420101462
 30
0.0
  0
SPLINE
  5
1A8
330
1F
100
AcDbEntity
  8
0
  6
Continuous
 62
     7
370
    25
100
AcDbSpline
210
0.0
220
0.0
230
1.0
 70
     8
 71
     3
 72
     8
 73
     4
 74
     0
 42
0.00000001
 43
0.00000001
 40
0.0
 40
0.0
 40
0.0
 40
0.0
 40
1.0
 40
1.0
 40
1.0
 40
1.0
 10
859.4007121581827
 20
-1.981535887511099
 30
0.0
 10
859.3652302486341
 20
1.174639234075514
 30
0.0
 10
859.2486715687638
 20
3.014042733796296
 30
0.0
 10
858.8791393675834
 20
6.01946401035669
 30
0.0
  0
SPLINE
  5
1A9
330
1F
100
AcDbEntity
  8
0
  6
Continuous
 62
     7
370
    25
100
AcDbSpline
210
0.0
220
0.0
230
1.0
 70
     8
 71
     3
 72
    38
 73
    34
 74
     0
 42
0.00000001
 43
0.00000001
 40
0.0
 40
0.0
 40
0.0
 40
0.0
 40
0.0312500000000038
 40
0.0312500000000038
 40
0.0625000000000077
 40
0.0625000000000077
 40
0.0937500000000115
 40
0.0937500000000115
 40
0.1093750000000075
 40
0.1093750000000075
 40
0.1250000000000035
 40
0.1250000000000035
 40
0.1562499999999954
 40
0.1562499999999954
 40
0.1874999999999874
 40
0.1874999999999874
 40
0.2031249999999915
 40
0.2031249999999915
 40
0.2187499999999956
 40
0.2187499999999956
 40
0.2343749999999998
 40
0.2343749999999998
 40
0.2500000000000038
 40
0.2500000000000038
 40
0.2812500000000121
 40
0.2812500000000121
 40
0.3125000000000203
 40
0.3125000000000203
 40
0.37500000000002
 40
0.37500000000002
 40
0.5000000000000193
 40
0.5000000000000193
 40
1.0
 40
1.0
 40
1.0
 40
1.0
 10
859.4007124635325
 20
-1.981535880933583
 30
0.0
 10
859.205067398422
 20
-1.981488583328972
 30
0.0
 10
858.9981607832709
 20
-1.982175415733034
 30
0.0
 10
858.5445128936025
 20
-1.986327174368752
 30
0.0
 10
858.2958824705527
 20
-1.989825318499394
 30
0.0
 10
857.771176126293
 20
-2.00038729112112
 30
0.0
 10
857.4959946087155
 20
-2.007290434592579
 30
0.0
 10
857.0340964149095
 20
-2.024757332714011
 30
0.0
 10
856.8762412596419
 20
-2.031610532559902
 30
0.0
 10
856.5836315283875
 20
-2.046532377582067
 30
0.0
 10
856.4465748444385
 20
-2.054543587436619
 30
0.0
 10
856.0399617275795
 20
-2.077224453510884
 30
0.0
 10
855.7753219561625
 20
-2.090585177556559
 30
0.0
 10
855.2936867950825
 20
-2.11419006259228
 30
0.0
 10
855.0718044959403
 20
-2.123582854076045
 30
0.0
 10
854.7546184668015
 20
-2.131965887403886
 30
0.0
 10
854.6514018825355
 20
-2.133938319398399
 30
0.0
 10
854.4503904753828
 20
-2.136217526262196
 30
0.0
 10
854.3550450240201
 20
-2.136380848524688
 30
0.0
 10
854.1630836614291
 20
-2.13534399483728
 30
0.0
 10
854.0590396021822
 20
-2.134280883846429
 30
0.0
 10
853.8492459217194
 20
-2.13302076606442
 30
0.0
 10
853.7472419874985
 20
-2.132927655029149
 30
0.0
 10
853.4394082713656
 20
-2.13334863324971
 30
0.0
 10
853.2312827594926
 20
-2.134273744365589
 30
0.0
 10
852.8183186795397
 20
-2.135129450447248
 30
0.0
 10
852.6118199239398
 20
-2.135481692352725
 30
0.0
 10
851.9917145498524
 20
-2.136493891086333
 30
0.0
 10
851.578583029733
 20
-2.136837480672227
 30
0.0
 10
850.3389560854051
 20
-2.137467150443773
 30
0.0
 10
849.51234058668
 20
-2.137373675641374
 30
0.0
 10
845.3799058264525
 20
-2.137162844799811
 30
0.0
 10
842.0733089714621
 20
-2.137474234871428
 30
0.0
 10
838.7669764191216
 20
-2.137340472537497
 30
0.0
  0
SPLINE
  5
1AA
330
1F
100
AcDbEntity
  8
0
  6
Continuous
 62
     7
370
    25
100
AcDbSpline
210
0.0
220
0.0
230
1.0
 70
     8
 71
     3
 72
    18
 73
    14
 74
     0
 42
0.00000001
 43
0.00000001
 40
0.0
 40
0.0
 40
0.0
 40
0.0
 40
0.2500000000000571
 40
0.2500000000000571
 40
0.3750000000000476
 40
0.3750000000000476
 40
0.5000000000000381
 40
0.5000000000000381
 40
0.6250000000000285
 40
0.6250000000000285
 40
0.750000000000019
 40
0.750000000000019
 40
1.0
 40
1.0
 40
1.0
 40
1.0
 10
838.3446911536081
 20
-3.405543513194498
 30
0.0
 10
838.4039404848968
 20
-3.360077867881173
 30
0.0
 10
838.4631893277499
 20
-3.307842802388161
 30
0.0
 10
838.5486034111552
 20
-3.204393046567888
 30
0.0
 10
838.5764237699526
 20
-3.165222366928955
 30
0.0
 10
838.6295905747373
 20
-3.070981031184972
 30
0.0
 10
838.6549367613119
 20
-3.015909682829998
 30
0.0
 10
838.6984268047079
 20
-2.873904536888738
 30
0.0
 10
838.7165707766484
 20
-2.786973725684205
 30
0.0
 10
838.7431750558545
 20
-2.625774939748027
 30
0.0
 10
838.7516355131061
 20
-2.551505799754938
 30
0.0
 10
838.7680676191176
 20
-2.346135041092212
 30
0.0
 10
838.7675045354495
 20
-2.232583948734601
 30
0.0
 10
838.7669764191213
 20
-2.137340472536553
 30
0.0
  0
SPLINE
  5
1AB
330
1F
100
AcDbEntity
  8
0
  6
Continuous
 62
     7
370
    25
100
AcDbSpline
210
0.0
220
0.0
230
1.0
 70
     8
 71
     3
 72
    14
 73
    10
 74
     0
 42
0.00000001
 43
0.00000001
 40
0.0
 40
0.0
 40
0.0
 40
0.0
 40
0.25
 40
0.25
 40
0.5
 40
0.5
 40
0.75
 40
0.75
 40
1.0
 40
1.0
 40
1.0
 40
1.0
 10
858.8299618930589
 20
-3.389357591106701
 30
0.0
 10
858.9166751926796
 20
-3.320161803257005
 30
0.0
 10
859.0054912773151
 20
-3.247834294387297
 30
0.0
 10
859.168970767101
 20
-3.063698483693145
 30
0.0
 10
859.2411202298093
 20
-2.954003919461823
 30
0.0
 10
859.3427659509025
 20
-2.703283331454087
 30
0.0
 10
859.3731383840409
 20
-2.560296389415184
 30
0.0
 10
859.4029064102479
 20
-2.268265898205113
 30
0.0
 10
859.4023041796776
 20
-2.123104006028054
 30
0.0
 10
859.4007123152801
 20
-1.981535884181707
 30
0.0
  0
SPLINE
  5
1AC
330
1F
100
AcDbEntity
  8
0
  6
Continuous
 62
     7
370
    25
100
AcDbSpline
210
0.0
220
0.0
230
1.0
 70
     8
 71
     3
 72
    38
 73
    34
 74
     0
 42
0.00000001
 43
0.00000001
 40
0.0
 40
0.0
 40
0.0
 40
0.0
 40
0.4999999999999112
 40
0.4999999999999112
 40
0.6249999999998972
 40
0.6249999999998972
 40
0.6874999999998901
 40
0.6874999999998901
 40
0.7187499999998949
 40
0.7187499999998949
 40
0.7343749999999054
 40
0.7343749999999054
 40
0.7499999999999161
 40
0.7499999999999161
 40
0.7656249999999267
 40
0.7656249999999267
 40
0.7812499999999373
 40
0.7812499999999373
 40
0.8124999999999585
 40
0.8124999999999585
 40
0.8437499999999798
 40
0.8437499999999798
 40
0.8750000000000011
 40
0.8750000000000011
 40
0.890625000000005
 40
0.890625000000005
 40
0.9062500000000089
 40
0.9062500000000089
 40
0.937500000000006
 40
0.937500000000006
 40
0.968750000000003
 40
0.968750000000003
 40
1.0
 40
1.0
 40
1.0
 40
1.0
 10
838.3447391480884
 20
-3.40556318099261
 30
0.0
 10
841.7208244715555
 20
-3.40560712233956
 30
0.0
 10
845.0967534935346
 20
-3.408017608895142
 30
0.0
 10
849.3170351950723
 20
-3.411144270199451
 30
0.0
 10
850.1614837570576
 20
-3.411806155186103
 30
0.0
 10
851.4284594253771
 20
-3.413576869226276
 30
0.0
 10
851.8501917039792
 20
-3.414112906005851
 30
0.0
 10
852.4850569064308
 20
-3.415927617501313
 30
0.0
 10
852.6967188470502
 20
-3.416598892251321
 30
0.0
 10
853.0126829671575
 20
-3.417241523839265
 30
0.0
 10
853.117985453746
 20
-3.417466313365702
 30
0.0
 10
853.3301928036933
 20
-3.418435434638323
 30
0.0
 10
853.4376743769243
 20
-3.419354092121851
 30
0.0
 10
853.647824306242
 20
-3.419774272815312
 30
0.0
 10
853.7487795747759
 20
-3.418634091880202
 30
0.0
 10
853.9515718467267
 20
-3.417764669470413
 30
0.0
 10
854.0551341917873
 20
-3.41886774992689
 30
0.0
 10
854.3718259770787
 20
-3.424147870460692
 30
0.0
 10
854.5904501443965
 20
-3.428518923476065
 30
0.0
 10
855.0439647998668
 20
-3.434457511182543
 30
0.0
 10
855.2792123145072
 20
-3.436240418138226
 30
0.0
 10
855.7607912776198
 20
-3.434993801571862
 30
0.0
 10
856.0042836366738
 20
-3.432067467434186
 30
0.0
 10
856.3778890131542
 20
-3.425325310528471
 30
0.0
 10
856.504695805588
 20
-3.422726061090398
 30
0.0
 10
856.75288657108
 20
-3.416698263427165
 30
0.0
 10
856.8730602041129
 20
-3.413096543648186
 30
0.0
 10
857.2247851913284
 20
-3.40322656913189
 30
0.0
 10
857.4522614462952
 20
-3.399691996211707
 30
0.0
 10
857.8861014529284
 20
-3.394208072694582
 30
0.0
 10
858.0918644283229
 20
-3.392086228767743
 30
0.0
 10
858.4779132319723
 20
-3.389682106294922
 30
0.0
 10
858.6586380829123
 20
-3.389325659127418
 30
0.0
 10
858.8299619074872
 20
-3.389357626515932
 30
0.0
  0
SPLINE
  5
1AD
330
1F
100
AcDbEntity
  8
0
  6
Continuous
 62
     7
370
    25
100
AcDbSpline
210
0.0
220
0.0
230
1.0
 70
     8
 71
     3
 72
    22
 73
    18
 74
     0
 42
0.00000001
 43
0.00000001
 40
0.0
 40
0.0
 40
0.0
 40
0.0
 40
0.5000000000005721
 40
0.5000000000005721
 40
0.7500000000011552
 40
0.7500000000011552
 40
0.8750000000014466
 40
0.8750000000014466
 40
0.9375000000015856
 40
0.9375000000015856
 40
0.9687500000016569
 40
0.9843750000016925
 40
0.9921875000012784
 40
0.9960937500006393
 40
0.9980468750003196
 40
0.9980468750003196
 40
1.0
 40
1.0
 40
1.0
 40
1.0
 10
838.4077461757911
 20
-2.140198559878403
 30
0.0
 10
838.453144397483
 20
-2.139648545447015
 30
0.0
 10
838.5053058172443
 20
-2.139103114287721
 30
0.0
 10
838.6001895559481
 20
-2.138351660369964
 30
0.0
 10
838.6342486709267
 20
-2.138117086519176
 30
0.0
 10
838.6850454148832
 20
-2.137799338940982
 30
0.0
 10
838.7018648992088
 20
-2.13769922854562
 30
0.0
 10
838.7265816936213
 20
-2.137556344827096
 30
0.0
 10
838.7347401763355
 20
-2.137509891314449
 30
0.0
 10
838.7468816143429
 20
-2.137441322745515
 30
0.0
 10
838.7529291466705
 20
-2.137407310514816
 30
0.0
 10
838.7599599590682
 20
-2.137367894955444
 30
0.0
 10
838.7634720983267
 20
-2.137348221487534
 30
0.0
 10
838.7652277432816
 20
-2.137338389141596
 30
0.0
 10
838.7659801163497
 20
-2.137334175753014
 30
0.0
 10
838.7664816932751
 20
-2.137331366879713
 30
0.0
 10
838.7673596901902
 20
-2.136238835661552
 30
0.0
 10
838.7669764191671
 20
-2.137340467610493
 30
0.0
  0
SPLINE
  5
1AE
330
1F
100
AcDbEntity
  8
0
  6
Continuous
 62
     7
370
    25
100
AcDbSpline
210
0.0
220
0.0
230
1.0
 70
     8
 71
     3
 72
     9
 73
     5
 74
     0
 42
0.00000001
 43
0.00000001
 40
0.0
 40
0.0
 40
0.0
 40
0.0
 40
0.5
 40
1.0
 40
1.0
 40
1.0
 40
1.0
 10
837.746374025985
 20
5.923129961605489
 30
0.0
 10
837.9642746840449
 20
4.601452461999999
 30
0.0
 10
838.3382922751451
 20
1.935076490994447
 30
0.0
 10
838.4001476910372
 20
-0.7830411972604701
 30
0.0
 10
838.4077461757911
 20
-2.140198559878403
 30
0.0
  0
SPLINE
  5
1AF
330
1F
100
AcDbEntity
  8
0
  6
Continuous
 62
     7
370
    25
100
AcDbSpline
210
0.0
220
0.0
230
1.0
 70
     8
 71
     3
 72
    10
 73
     6
 74
     0
 42
0.00000001
 43
0.00000001
 40
0.0
 40
0.0
 40
0.0
 40
0.0
 40
0.5
 40
0.5
 40
1.0
 40
1.0
 40
1.0
 40
1.0
 10
837.7463740260172
 20
5.923129961605489
 30
0.0
 10
837.7914159936186
 20
5.937965961142988
 30
0.0
 10
837.8433410673819
 20
5.954378095605783
 30
0.0
 10
837.9700794510297
 20
5.983474800962507
 30
0.0
 10
838.0414440291833
 20
5.995374579487733
 30
0.0
 10
838.1060077600312
 20
6.005720313715324
 30
0.0
  0
SPLINE
  5
1B0
330
1F
100
AcDbEntity
  8
0
  6
Continuous
 62
     7
370
    25
100
AcDbSpline
210
0.0
220
0.0
230
1.0
 70
     8
 71
     3
 72
    11
 73
     7
 74
     0
 42
0.00000001
 43
0.00000001
 40
0.0
 40
0.0
 40
0.0
 40
0.0
 40
0.25
 40
0.5
 40
0.75
 40
1.0
 40
1.0
 40
1.0
 40
1.0
 10
834.022184704292
 20
-6.04362122550789
 30
0.0
 10
833.9254123076425
 20
-6.117867581070691
 30
0.0
 10
833.7340799587232
 20
-6.269569792895502
 30
0.0
 10
833.4770331389585
 20
-6.569791746252052
 30
0.0
 10
833.2936023074046
 20
-6.965545080329816
 30
0.0
 10
833.2423429372288
 20
-7.270447451405204
 30
0.0
 10
833.221665474707
 20
-7.423798359987799
 30
0.0
  0
SPLINE
  5
1B1
330
1F
100
AcDbEntity
  8
0
  6
Continuous
 62
     7
370
    25
100
AcDbSpline
210
0.0
220
0.0
230
1.0
 70
     8
 71
     3
 72
     9
 73
     5
 74
     0
 42
0.00000001
 43
0.00000001
 40
0.0
 40
0.0
 40
0.0
 40
0.0
 40
0.5
 40
1.0
 40
1.0
 40
1.0
 40
1.0
 10
833.221665474707
 20
-7.423798359987799
 30
0.0
 10
832.6949106713319
 20
-11.30145646036401
 30
0.0
 10
831.3556894585324
 20
-18.97735253051314
 30
0.0
 10
829.3347490662253
 20
-26.34743513661047
 30
0.0
 10
828.206689567894
 20
-29.95901288110392
 30
0.0
  0
SPLINE
  5
1B3
330
1F
100
AcDbEntity
  8
0
  6
Continuous
 62
     7
370
    25
100
AcDbSpline
210
0.0
220
0.0
230
1.0
 70
     8
 71
     3
 72
    14
 73
    10
 74
     0
 42
0.00000001
 43
0.00000001
 40
0.0
 40
0.0
 40
0.0
 40
0.0
 40
0.25
 40
0.25
 40
0.5
 40
0.5
 40
0.75
 40
0.75
 40
1.0
 40
1.0
 40
1.0
 40
1.0
 10
834.0221847081774
 20
-6.043621222527273
 30
0.0
 10
834.0382303783624
 20
-6.085442899841476
 30
0.0
 10
834.0550819717412
 20
-6.128501414957633
 30
0.0
 10
834.0998433138019
 20
-6.214786824518148
 30
0.0
 10
834.1272278653652
 20
-6.256762490745915
 30
0.0
 10
834.1914761807758
 20
-6.328850017439825
 30
0.0
 10
834.2288865244834
 20
-6.359575034411369
 30
0.0
 10
834.305791339894
 20
-6.409796712843585
 30
0.0
 10
834.3441709865206
 20
-6.428704445098687
 30
0.0
 10
834.3814475686567
 20
-6.44670496470262
 30
0.0
  0
SPLINE
  5
1B4
330
1F
100
AcDbEntity
  8
0
  6
Continuous
 62
     7
370
    25
100
AcDbSpline
210
0.0
220
0.0
230
1.0
 70
     8
 71
     3
 72
     8
 73
     4
 74
     0
 42
0.00000001
 43
0.00000001
 40
0.0
 40
0.0
 40
0.0
 40
0.0
 40
1.0
 40
1.0
 40
1.0
 40
1.0
 10
854.935339128141
 20
-6.498078188055089
 30
0.0
 10
856.2340139997033
 20
-5.461848781408596
 30
0.0
 10
857.5313842221987
 20
-4.425599984931416
 30
0.0
 10
858.8299618930589
 20
-3.389357591106701
 30
0.0
  0
SPLINE
  5
1B5
330
1F
100
AcDbEntity
  8
0
  6
Continuous
 62
     7
370
    25
100
AcDbSpline
210
0.0
220
0.0
230
1.0
 70
     8
 71
     3
 72
    20
 73
    16
 74
     0
 42
0.00000001
 43
0.00000001
 40
0.0
 40
0.0
 40
0.0
 40
0.0
 40
0.0625000000000062
 40
0.0625000000000062
 40
0.1250000000000123
 40
0.1250000000000123
 40
0.1875000000000185
 40
0.1875000000000185
 40
0.2500000000000246
 40
0.2500000000000246
 40
0.3750000000000205
 40
0.3750000000000205
 40
0.5000000000000164
 40
0.5000000000000164
 40
1.0
 40
1.0
 40
1.0
 40
1.0
 10
854.935327577283
 20
-6.498078480685232
 30
0.0
 10
854.6806137105085
 20
-6.498024051850959
 30
0.0
 10
854.383695064254
 20
-6.495125948116353
 30
0.0
 10
853.7217126658411
 20
-6.488033999634935
 30
0.0
 10
853.3561676260333
 20
-6.48397716540744
 30
0.0
 10
852.582124528811
 20
-6.476417890944496
 30
0.0
 10
852.1741837522002
 20
-6.473007087200777
 30
0.0
 10
851.3374975926373
 20
-6.467135853884143
 30
0.0
 10
850.9096672081145
 20
-6.464640260707199
 30
0.0
 10
849.6130703572597
 20
-6.458280141730999
 30
0.0
 10
848.7285683594796
 20
-6.455483920758731
 30
0.0
 10
846.9459931479007
 20
-6.451752832778268
 30
0.0
 10
846.0483592182304
 20
-6.450916775796789
 30
0.0
 10
841.5595358001914
 20
-6.448682861514065
 30
0.0
 10
837.970400026851
 20
-6.447092078136041
 30
0.0
 10
834.3814565124023
 20
-6.446657369808539
 30
0.0
  0
SPLINE
  5
1B6
330
1F
100
AcDbEntity
  8
0
  6
Continuous
 62
     7
370
    25
100
AcDbSpline
210
0.0
220
0.0
230
1.0
 70
     8
 71
     3
 72
    20
 73
    16
 74
     0
 42
0.00000001
 43
0.00000001
 40
0.0
 40
0.0
 40
0.0
 40
0.0
 40
0.2499999999999671
 40
0.2499999999999671
 40
0.3749999999999258
 40
0.3749999999999258
 40
0.4374999999999188
 40
0.4374999999999188
 40
0.4999999999999118
 40
0.4999999999999118
 40
0.6249999999998981
 40
0.6249999999998981
 40
0.7499999999998844
 40
0.7499999999998844
 40
1.0
 40
1.0
 40
1.0
 40
1.0
 10
838.1060077600312
 20
6.005720313715324
 30
0.0
 10
838.079102307938
 20
6.169651938958243
 30
0.0
 10
838.0503714485983
 20
6.37022775761853
 30
0.0
 10
837.9655201596116
 20
6.68583597431388
 30
0.0
 10
837.9304286708544
 20
6.794596809442
 30
0.0
 10
837.8644807468579
 20
6.960786473602876
 30
0.0
 10
837.8404991707278
 20
7.014810494297197
 30
0.0
 10
837.7897802853261
 20
7.104680918075756
 30
0.0
 10
837.763042982528
 20
7.140525305248946
 30
0.0
 10
837.6808054635082
 20
7.226948352688112
 30
0.0
 10
837.6237872198434
 20
7.255872696530218
 30
0.0
 10
837.5084946645842
 20
7.297885779610381
 30
0.0
 10
837.4501186015092
 20
7.31108462975455
 30
0.0
 10
837.2746049360023
 20
7.336459165868225
 30
0.0
 10
837.1577437981745
 20
7.335000000591285
 30
0.0
 10
837.0405494725877
 20
7.335000000587955
 30
0.0
  0
SPLINE
  5
1B7
330
1F
100
AcDbEntity
  8
0
  6
Continuous
 62
     7
370
    25
100
AcDbSpline
210
0.0
220
0.0
230
1.0
 70
    24
 71
     3
 72
    26
 73
    22
 74
     0
 42
0.00000001
 43
0.00000001
 40
0.0
 40
0.0
 40
0.0
 40
0.0
 40
0.0312499999999774
 40
0.0312499999999774
 40
0.0624999999999547
 40
0.0624999999999547
 40
0.0781249999999508
 40
0.0781249999999508
 40
0.0937499999999468
 40
0.0937499999999468
 40
0.1249999999999547
 40
0.1249999999999547
 40
0.1874999999999545
 40
0.1874999999999545
 40
0.2499999999999544
 40
0.2499999999999544
 40
0.4999999999999696
 40
0.4999999999999696
 40
0.7499999999999848
 40
0.7499999999999848
 40
1.0
 40
1.0
 40
1.0
 40
1.0
 10
857.7732256382949
 20
7.335000000587955
 30
0.0
 10
857.6179885538412
 20
7.335000000587122
 30
0.0
 10
857.4459135392383
 20
7.335000000588343
 30
0.0
 10
857.082338480303
 20
7.335000000588066
 30
0.0
 10
856.8909095441455
 20
7.335000000588233
 30
0.0
 10
856.5873611292117
 20
7.335000000588121
 30
0.0
 10
856.4828817796526
 20
7.335000000587788
 30
0.0
 10
856.271266299505
 20
7.335000000588121
 30
0.0
 10
856.1645657427101
 20
7.33500000058801
 30
0.0
 10
855.8422260031116
 20
7.335000000588233
 30
0.0
 10
855.624983632497
 20
7.335000000588121
 30
0.0
 10
854.9703797045493
 20
7.335000000587621
 30
0.0
 10
854.532345978694
 20
7.335000000586844
 30
0.0
 10
853.6577533783282
 20
7.335000000589675
 30
0.0
 10
853.2204577303054
 20
7.335000000587288
 30
0.0
 10
851.0339799642561
 20
7.335000000590675
 30
0.0
 10
849.284796365695
 20
7.335000000588121
 30
0.0
 10
845.7864334984772
 20
7.33500000058801
 30
0.0
 10
844.0372502642048
 20
7.335000000587454
 30
0.0
 10
840.5388799968297
 20
7.335000000588233
 30
0.0
 10
838.7896926729497
 20
7.335000000586289
 30
0.0
 10
837.040503672109
 20
7.335000000587955
 30
0.0
  0
SPLINE
  5
1B8
330
1F
100
AcDbEntity
  8
0
  6
Continuous
 62
     7
370
    25
100
AcDbSpline
210
0.0
220
0.0
230
1.0
 70
     8
 71
     3
 72
     8
 73
     4
 74
     0
 42
0.00000001
 43
0.00000001
 40
0.0
 40
0.0
 40
0.0
 40
0.0
 40
1.0
 40
1.0
 40
1.0
 40
1.0
 10
858.0818847494969
 20
7.315797972108184
 30
0.0
 10
857.9780712169047
 20
7.333981449421545
 30
0.0
 10
857.8748371421531
 20
7.335000000587899
 30
0.0
 10
857.773216267236
 20
7.335000000587899
 30
0.0
  0
SPLINE
  5
1B9
330
1F
100
AcDbEntity
  8
0
  6
Continuous
 62
     7
370
    25
100
AcDbSpline
210
0.0
220
0.0
230
1.0
 70
     8
 71
     3
 72
    14
 73
    10
 74
     0
 42
0.00000001
 43
0.00000001
 40
0.0
 40
0.0
 40
0.0
 40
0.0
 40
0.25
 40
0.25
 40
0.5
 40
0.5
 40
0.75
 40
0.75
 40
1.0
 40
1.0
 40
1.0
 40
1.0
 10
858.8791150257467
 20
6.019453417086207
 30
0.0
 10
858.8600731119718
 20
6.174327363843268
 30
0.0
 10
858.8395404533474
 20
6.331311941778273
 30
0.0
 10
858.7690999787657
 20
6.636675150569593
 30
0.0
 10
858.7197224792951
 20
6.782900317973183
 30
0.0
 10
858.5869918297536
 20
7.025671469823969
 30
0.0
 10
858.5033851465778
 20
7.121150266908627
 30
0.0
 10
858.3066535841514
 20
7.25624879294362
 30
0.0
 10
858.1945931051705
 20
7.296051895397005
 30
0.0
 10
858.081859417437
 20
7.315797972189786
 30
0.0
  0
SPLINE
  5
1BA
330
1F
100
AcDbEntity
  8
0
  6
Continuous
 62
     7
370
    25
100
AcDbSpline
210
0.0
220
0.0
230
1.0
 70
     8
 71
     3
 72
    26
 73
    22
 74
     0
 42
0.00000001
 43
0.00000001
 40
0.0
 40
0.0
 40
0.0
 40
0.0
 40
0.1190939322700791
 40
0.278111930770492
 40
0.4771147519125188
 40
0.6106373164538242
 40
0.7121510545898102
 40
0.7429244263245438
 40
0.7692381048412944
 40
0.7911416010430379
 40
0.8085024242091696
 40
0.8212987242790152
 40
0.8295792760185267
 40
0.8456470345870895
 40
0.8730839492012396
 40
0.9115380858767558
 40
0.9232774173911105
 40
0.9380002610342048
 40
0.9556959350415747
 40
0.9763603464738521
 40
1.0
 40
1.0
 40
1.0
 40
1.0
 10
860.339041264024
 20
6.005744813694481
 30
0.0
 10
860.3384000691815
 20
6.005958092880681
 30
0.0
 10
860.3369027306328
 20
6.00645614920603
 30
0.0
 10
860.3290111202929
 20
5.999141637586025
 30
0.0
 10
860.3187794099571
 20
5.985712622401107
 30
0.0
 10
860.3095406518969
 20
5.975545672172844
 30
0.0
 10
860.3044144489954
 20
5.96982214461933
 30
0.0
 10
860.3019038373329
 20
5.967182689585515
 30
0.0
 10
860.300217127736
 20
5.966719983708623
 30
0.0
 10
860.3053008618356
 20
5.966970172059439
 30
0.0
 10
860.3046774918747
 20
5.967836958174932
 30
0.0
 10
860.2984957599382
 20
5.969016337519395
 30
0.0
 10
860.2867308134059
 20
5.971376900863468
 30
0.0
 10
860.2587562285179
 20
5.978589788608546
 30
0.0
 10
860.1728959999419
 20
5.989975933811009
 30
0.0
 10
859.9995920495697
 20
6.004377374646264
 30
0.0
 10
859.8100083646594
 20
6.013396850484853
 30
0.0
 10
859.6650143809989
 20
6.016277173512885
 30
0.0
 10
859.4672674160155
 20
6.018318207712648
 30
0.0
 10
859.2081225997704
 20
6.01931171354031
 30
0.0
 10
858.9936025025092
 20
6.019411021734644
 30
0.0
 10
858.8791393989903
 20
6.019464010355636
 30
0.0
  0
SPLINE
  5
1BB
330
1F
100
AcDbEntity
  8
0
  6
Continuous
 62
     7
370
    25
100
AcDbSpline
210
0.0
220
0.0
230
1.0
 70
     8
 71
     3
 72
    10
 73
     6
 74
     0
 42
0.00000001
 43
0.00000001
 40
0.0
 40
0.0
 40
0.0
 40
0.0
 40
0.5000000000000001
 40
0.5000000000000001
 40
1.0
 40
1.0
 40
1.0
 40
1.0
 10
861.0071699520131
 20
-2.137340462685489
 30
0.0
 10
860.9994915614932
 20
-0.7662581547577263
 30
0.0
 10
860.9664803291573
 20
0.6056861396668278
 30
0.0
 10
860.7492117719704
 20
3.325068207526316
 30
0.0
 10
860.5591886261731
 20
4.670439638589374
 30
0.0
 10
860.3390412640242
 20
6.005744813694481
 30
0.0
  0
SPLINE
  5
1BC
330
1F
100
AcDbEntity
  8
0
  6
Continuous
 62
     7
370
    25
100
AcDbSpline
210
0.0
220
0.0
230
1.0
 70
     8
 71
     3
 72
    37
 73
    33
 74
     0
 42
0.00000001
 43
0.00000001
 40
0.0
 40
0.0
 40
0.0
 40
0.0
 40
0.0118106105649947
 40
0.0235188515249985
 40
0.035099073178526
 40
0.0465273090128184
 40
0.0577815686268634
 40
0.0688421317547611
 40
0.0796841047044629
 40
0.0902919874753818
 40
0.1006624252495826
 40
0.1107921152100453
 40
0.1206780108637476
 40
0.1303175240122144
 40
0.139708726558621
 40
0.1488670837175407
 40
0.1578380295361549
 40
0.1666454712613899
 40
0.2077069785000666
 40
0.2358351761070634
 40
0.2630373784241533
 40
0.2779058660883761
 40
0.2927689648312995
 40
0.317952098779747
 40
0.3431513870319517
 40
0.3585486699907363
 40
0.3983542660186498
 40
0.4588686441434567
 40
0.5247020145378828
 40
0.7272855528023224
 40
0.8857183879653483
 40
1.0
 40
1.0
 40
1.0
 40
1.0
 10
859.4007121672321
 20
-1.981535887511043
 30
0.0
 10
859.458714591327
 20
-1.981584705164019
 30
0.0
 10
859.5742166979176
 20
-1.981681917338329
 30
0.0
 10
859.7375040451996
 20
-1.982636382829028
 30
0.0
 10
859.8920532521528
 20
-1.984181081198966
 30
0.0
 10
860.0367382989323
 20
-1.986370058851161
 30
0.0
 10
860.1712627664094
 20
-1.989185952234851
 30
0.0
 10
860.2950609326679
 20
-1.992628035903554
 30
0.0
 10
860.407850542999
 20
-1.996695147471306
 30
0.0
 10
860.5097827062564
 20
-2.001386604681521
 30
0.0
 10
860.6008943983182
 20
-2.006696750253001
 30
0.0
 10
860.6813245960659
 20
-2.01262317767481
 30
0.0
 10
860.7511869342852
 20
-2.019162778961969
 30
0.0
 10
860.8106436303194
 20
-2.02631382752505
 30
0.0
 10
860.8597281302033
 20
-2.034074806807007
 30
0.0
 10
860.8990822551591
 20
-2.042476081773881
 30
0.0
 10
860.9313155784525
 20
-2.051415214195773
 30
0.0
 10
860.9882263921002
 20
-2.073082696563311
 30
0.0
 10
861.0166518428267
 20
-2.102161219278809
 30
0.0
 10
861.0102622585626
 20
-2.132026108927709
 30
0.0
 10
861.0007100363064
 20
-2.136605750794329
 30
0.0
 10
861.0016325102357
 20
-2.134970389054192
 30
0.0
 10
861.0015354177771
 20
-2.132575596989705
 30
0.0
 10
861.0017541378695
 20
-2.130197217073582
 30
0.0
 10
861.0019761328617
 20
-2.135181549792975
 30
0.0
 10
861.002207363577
 20
-2.135454283913762
 30
0.0
 10
861.0025503514353
 20
-2.13626668188599
 30
0.0
 10
861.0030745219193
 20
-2.137113405201174
 30
0.0
 10
861.0041493897149
 20
-2.13734646621877
 30
0.0
 10
861.0056285649457
 20
-2.139548241834821
 30
0.0
 10
861.006915139531
 20
-2.139649267083044
 30
0.0
 10
861.007094704784
 20
-2.138022262621497
 30
0.0
 10
861.0071699520131
 20
-2.137340462685489
 30
0.0
  0
SPLINE
  5
1BD
330
1F
100
AcDbEntity
  8
0
  6
Continuous
 62
     7
370
    25
100
AcDbSpline
210
0.0
220
0.0
230
1.0
 70
     8
 71
     3
 72
     9
 73
     5
 74
     0
 42
0.00000001
 43
0.00000001
 40
0.0
 40
0.0
 40
0.0
 40
0.0
 40
0.3435748583042586
 40
1.0
 40
1.0
 40
1.0
 40
1.0
 10
860.9581886235216
 20
-2.659358379926147
 30
0.0
 10
860.971702682386
 20
-2.600853975561368
 30
0.0
 10
861.0110363487988
 20
-2.430572585783386
 30
0.0
 10
861.008701105625
 20
-2.253545501452403
 30
0.0
 10
861.0071681932941
 20
-2.137340472536386
 30
0.0
  0
SPLINE
  5
1BF
330
1F
100
AcDbEntity
  8
0
  6
Continuous
 62
     7
370
    25
100
AcDbSpline
210
0.0
220
0.0
230
1.0
 70
     8
 71
     3
 72
    12
 73
     8
 74
     0
 42
0.00000001
 43
0.00000001
 40
0.0
 40
0.0
 40
0.0
 40
0.0
 40
0.1056013653864106
 40
0.3484200559180608
 40
0.618354305514902
 40
0.8119847674134343
 40
0.9999999999999999
 40
0.9999999999999999
 40
0.9999999999999999
 40
0.9999999999999999
 10
860.3849316674845
 20
-3.413956773600735
 30
0.0
 10
860.3843496336882
 20
-3.414464930651728
 30
0.0
 10
860.3824292773837
 20
-3.416141538785333
 30
0.0
 10
860.3804014099951
 20
-3.416054298240379
 30
0.0
 10
860.356433011251
 20
-3.444026350352847
 30
0.0
 10
859.8085310429718
 20
-3.389096535052094
 30
0.0
 10
859.1529363206156
 20
-3.3892714539
 30
0.0
 10
858.8299619074689
 20
-3.389357626515932
 30
0.0
  0
SPLINE
  5
1C1
330
1F
100
AcDbEntity
  8
0
  6
Continuous
 62
     7
370
    25
100
AcDbSpline
210
0.0
220
0.0
230
1.0
 70
     8
 71
     3
 72
     9
 73
     5
 74
     0
 42
0.00000001
 43
0.00000001
 40
0.0
 40
0.0
 40
0.0
 40
0.0
 40
0.3065338923784732
 40
1.0
 40
1.0
 40
1.0
 40
1.0
 10
836.3891755887867
 20
7.285256343983193
 30
0.0
 10
836.4098830866146
 20
7.297119904060622
 30
0.0
 10
836.4774367840776
 20
7.335822182576779
 30
0.0
 10
836.5509802712103
 20
7.335336680100502
 30
0.0
 10
836.601980186973
 20
7.33500000058801
 30
0.0
  0
SPLINE
  5
1C2
330
1F
100
AcDbEntity
  8
0
  6
Continuous
 62
     7
370
    25
100
AcDbSpline
210
0.0
220
0.0
230
1.0
 70
    24
 71
     3
 72
    63
 73
    59
 74
     0
 42
0.00000001
 43
0.00000001
 40
0.0
 40
0.0
 40
0.0
 40
0.0
 40
0.0312500000003604
 40
0.0312500000003604
 40
0.0625000000007209
 40
0.0625000000007209
 40
0.0937500000010813
 40
0.0937500000010813
 40
0.0976562500011286
 40
0.0976562500011286
 40
0.0996093750011522
 40
0.0996093750011522
 40
0.1015625000011759
 40
0.1093750000012705
 40
0.1250000000014597
 40
0.1289062500015054
 40
0.1308593750015245
 40
0.1308593750015245
 40
0.1318359375015341
 40
0.1318359375015341
 40
0.1328125000015436
 40
0.1406250000015959
 40
0.1562500000017006
 40
0.1640625000017495
 40
0.1640625000017495
 40
0.1650390625017578
 40
0.1650390625017578
 40
0.1660156250017661
 40
0.1679687500017908
 40
0.1718750000018401
 40
0.1875000000020291
 40
0.1875000000020291
 40
0.2500000000028014
 40
0.2500000000028014
 40
0.2578125000028999
 40
0.2597656250029285
 40
0.2607421875029389
 40
0.2607421875029389
 40
0.261230468752944
 40
0.261230468752944
 40
0.2617187500029493
 40
0.2656250000029338
 40
0.281250000002872
 40
0.3125000000027483
 40
0.3750000000025008
 40
0.5000000000020058
 40
0.5156250000019433
 40
0.5195312500019277
 40
0.5195312500019277
 40
0.520507812501926
 40
0.520507812501926
 40
0.5214843750019245
 40
0.5234375000019214
 40
0.5312500000018945
 40
0.5625000000017658
 40
0.6250000000015157
 40
0.7500000000010077
 40
1.0
 40
1.0
 40
1.0
 40
1.0
 10
857.7732256382949
 20
7.335000000587955
 30
0.0
 10
857.9296940683324
 20
7.33500000058801
 30
0.0
 10
858.0697608784792
 20
7.33500000058801
 30
0.0
 10
858.3093029590556
 20
7.33500000058801
 30
0.0
 10
858.4100107313589
 20
7.33500000058801
 30
0.0
 10
858.5732997399965
 20
7.33500000058801
 30
0.0
 10
858.6316752573531
 20
7.33500000058801
 30
0.0
 10
858.6727793692382
 20
7.33500000058801
 30
0.0
 10
858.6770006661101
 20
7.33500000058801
 30
0.0
 10
858.6828138714101
 20
7.33500000058801
 30
0.0
 10
858.6848533931179
 20
7.33500000058801
 30
0.0
 10
858.6877139178808
 20
7.33500000058801
 30
0.0
 10
858.6946976302471
 20
7.33500000058801
 30
0.0
 10
858.7106764883549
 20
7.33500000058801
 30
0.0
 10
858.7222531447838
 20
7.33500000058801
 30
0.0
 10
858.7276618991976
 20
7.33500000058801
 30
0.0
 10
858.728835334863
 20
7.33500000058801
 30
0.0
 10
858.7293717728322
 20
7.33500000058801
 30
0.0
 10
858.7295837745157
 20
7.33500000058801
 30
0.0
 10
858.7297682515049
 20
7.33500000058801
 30
0.0
 10
858.7305763118379
 20
7.33500000058801
 30
0.0
 10
858.7322687710059
 20
7.33500000058801
 30
0.0
 10
858.7325504369545
 20
7.33500000058801
 30
0.0
 10
858.7313481750749
 20
7.33500000058801
 30
0.0
 10
858.7307206379536
 20
7.33500000058801
 30
0.0
 10
858.7306849694621
 20
7.33500000058801
 30
0.0
 10
858.7305838775354
 20
7.33500000058801
 30
0.0
 10
858.7304356024341
 20
7.33500000058801
 30
0.0
 10
858.7301131667316
 20
7.33500000058801
 30
0.0
 10
858.7292477601641
 20
7.33500000058801
 30
0.0
 10
858.7289093989841
 20
7.33500000058801
 30
0.0
 10
858.7289907448659
 20
7.33500000058801
 30
0.0
 10
858.7313503267619
 20
7.335000000588066
 30
0.0
 10
858.7326019200461
 20
7.33500000058801
 30
0.0
 10
858.7327724964634
 20
7.33500000058801
 30
0.0
 10
858.7329556535484
 20
7.335000000588066
 30
0.0
 10
858.7330052391821
 20
7.33500000058801
 30
0.0
 10
858.7330299709492
 20
7.335000000588066
 30
0.0
 10
858.7330432104167
 20
7.335000000588066
 30
0.0
 10
858.7330477752222
 20
7.33500000058801
 30
0.0
 10
858.7330684730721
 20
7.33500000058801
 30
0.0
 10
858.7331691683571
 20
7.335000000588066
 30
0.0
 10
858.733496799562
 20
7.335000000588066
 30
0.0
 10
858.7345757318509
 20
7.335000000588066
 30
0.0
 10
858.7382266567504
 20
7.335000000588066
 30
0.0
 10
858.7443896276061
 20
7.335000000588066
 30
0.0
 10
858.750254547831
 20
7.335000000588066
 30
0.0
 10
858.751074877318
 20
7.335000000588066
 30
0.0
 10
858.7512813483241
 20
7.335000000588066
 30
0.0
 10
858.7513236870092
 20
7.335000000588066
 30
0.0
 10
858.7513769311404
 20
7.335000000588066
 30
0.0
 10
858.7514567231407
 20
7.335000000588066
 30
0.0
 10
858.7517484776732
 20
7.335000000588066
 30
0.0
 10
858.7528520622666
 20
7.335000000588066
 30
0.0
 10
858.755481864661
 20
7.335000000588066
 30
0.0
 10
858.760614227078
 20
7.335000000588121
 30
0.0
 10
858.7687516424937
 20
7.335000000588121
 30
0.0
 10
858.7720797538482
 20
7.335000000588177
 30
0.0
 10
858.772723491059
 20
7.335000000588121
 30
0.0
  0
SPLINE
  5
1C3
330
1F
100
AcDbEntity
  8
0
  6
Continuous
 62
     7
370
    25
100
AcDbSpline
210
0.0
220
0.0
230
1.0
 70
     8
 71
     3
 72
    18
 73
    14
 74
     0
 42
0.00000001
 43
0.00000001
 40
0.0
 40
0.0
 40
0.0
 40
0.0
 40
0.1088373584550339
 40
0.2120718945194873
 40
0.3076293430692418
 40
0.3941801288079965
 40
0.4728044721158333
 40
0.5458868644275922
 40
0.6165532731058018
 40
0.6996122335210971
 40
0.7949525357775385
 40
0.9009394353891643
 40
1.0
 40
1.0
 40
1.0
 40
1.0
 10
860.3388926657472
 20
6.005720313746076
 30
0.0
 10
860.3234408138039
 20
6.098072682139966
 30
0.0
 10
860.2933325535345
 20
6.278023224919327
 30
0.0
 10
860.2234643534067
 20
6.532306931903264
 30
0.0
 10
860.1259433501604
 20
6.755074277225881
 30
0.0
 10
860.0030318645603
 20
6.937443337085069
 30
0.0
 10
859.8617112790909
 20
7.075133484903018
 30
0.0
 10
859.70964627192
 20
7.173011133080387
 30
0.0
 10
859.547462527836
 20
7.243364259459762
 30
0.0
 10
859.3696021420968
 20
7.2930965418877
 30
0.0
 10
859.1697315410227
 20
7.323901301297009
 30
0.0
 10
858.9644780032622
 20
7.335017666641463
 30
0.0
 10
858.8352167511255
 20
7.335005755152446
 30
0.0
 10
858.7727692945451
 20
7.335000000588121
 30
0.0
  0
SPLINE
  5
1C4
330
1F
100
AcDbEntity
  8
0
  6
Continuous
 62
     7
370
    25
100
AcDbSpline
210
0.0
220
0.0
230
1.0
 70
     8
 71
     3
 72
     9
 73
     5
 74
     0
 42
0.00000001
 43
0.00000001
 40
0.0
 40
0.0
 40
0.0
 40
0.0
 40
0.8529913825108607
 40
0.9999999999999999
 40
0.9999999999999999
 40
0.9999999999999999
 40
0.9999999999999999
 10
856.4228723566521
 20
-6.446698101143622
 30
0.0
 10
857.0831880104324
 20
-5.940022723495309
 30
0.0
 10
857.857305624419
 20
-5.346024486189648
 30
0.0
 10
858.6323926016604
 20
-4.751286023347234
 30
0.0
 10
858.7463370666185
 20
-4.663854344157114
 30
0.0
  0
SPLINE
  5
1C5
330
1F
100
AcDbEntity
  8
0
  6
Continuous
 62
     7
370
    25
100
AcDbSpline
210
0.0
220
0.0
230
1.0
 70
     8
 71
     3
 72
    23
 73
    19
 74
     0
 42
0.00000001
 43
0.00000001
 40
0.0
 40
0.0
 40
0.0
 40
0.0
 40
0.0084295533331564
 40
0.0189256027181992
 40
0.0315902516454123
 40
0.0466098406322029
 40
0.0642548323134886
 40
0.0849074570210873
 40
0.1090752618434204
 40
0.1391213748191861
 40
0.1693680182636438
 40
0.1995029854713361
 40
0.2290220620953961
 40
0.3419126575515581
 40
0.480200294494887
 40
0.6400540042883006
 40
0.8133939224948941
 40
1.0
 40
1.0
 40
1.0
 40
1.0
 10
854.9353418293604
 20
-6.498084958654671
 30
0.0
 10
854.9762773145894
 20
-6.497973367574128
 30
0.0
 10
855.0681835758002
 20
-6.497722828978203
 30
0.0
 10
855.210234206863
 20
-6.496455093541742
 30
0.0
 10
855.3677445495676
 20
-6.49456200722498
 30
0.0
 10
855.5328093560294
 20
-6.491923410093136
 30
0.0
 10
855.6990137836264
 20
-6.488571826716361
 30
0.0
 10
855.858524885896
 20
-6.484508590531179
 30
0.0
 10
856.0081728505701
 20
-6.479548697646775
 30
0.0
 10
856.1318856631642
 20
-6.474376936489779
 30
0.0
 10
856.2249707944466
 20
-6.46966220929629
 30
0.0
 10
856.289781318676
 20
-6.465641642794728
 30
0.0
 10
856.3764052661929
 20
-6.459150800200097
 30
0.0
 10
856.4122324275663
 20
-6.453123276463913
 30
0.0
 10
856.4097306802697
 20
-6.450048057387637
 30
0.0
 10
856.4160517789966
 20
-6.448858648635425
 30
0.0
 10
856.4204204530845
 20
-6.447458790066363
 30
0.0
 10
856.4220352175582
 20
-6.446957818713184
 30
0.0
 10
856.4228723566521
 20
-6.446698101143678
 30
0.0
  0
SPLINE
  5
1C6
330
1F
100
AcDbEntity
  8
0
  6
Continuous
 62
     7
370
    25
100
AcDbSpline
210
0.0
220
0.0
230
1.0
 70
     8
 71
     3
 72
    14
 73
    10
 74
     0
 42
0.00000001
 43
0.00000001
 40
0.0
 40
0.0
 40
0.0
 40
0.0
 40
0.0742118746990355
 40
0.1795155628449469
 40
0.3105681414443137
 40
0.4794707751903985
 40
0.7175712492395264
 40
0.8949492413168227
 40
1.0
 40
1.0
 40
1.0
 40
1.0
 10
833.5808375704154
 20
-7.492203063656278
 30
0.0
 10
833.58618863645
 20
-7.455302355084791
 30
0.0
 10
833.5991326516078
 20
-7.366041013884994
 30
0.0
 10
833.6324577362955
 20
-7.214069385409472
 30
0.0
 10
833.70866148531
 20
-7.028597173184159
 30
0.0
 10
833.8643269068652
 20
-6.825270142926721
 30
0.0
 10
834.0691724422242
 20
-6.661081181847495
 30
0.0
 10
834.2560786641379
 20
-6.539332142556309
 30
0.0
 10
834.3474649378478
 20
-6.471785518858075
 30
0.0
 10
834.3814565104503
 20
-6.446661220970984
 30
0.0
  0
SPLINE
  5
1C7
330
1F
100
AcDbEntity
  8
0
  6
Continuous
 62
     7
370
    25
100
AcDbSpline
210
0.0
220
0.0
230
1.0
 70
     8
 71
     3
 72
    10
 73
     6
 74
     0
 42
0.00000001
 43
0.00000001
 40
0.0
 40
0.0
 40
0.0
 40
0.0
 40
0.5
 40
0.5
 40
1.0
 40
1.0
 40
1.0
 40
1.0
 10
833.221664716839
 20
-7.423803934696826
 30
0.0
 10
833.2667758365509
 20
-7.436070305227083
 30
0.0
 10
833.3187333213067
 20
-7.449635905651563
 30
0.0
 10
833.4452667644014
 20
-7.473732350107731
 30
0.0
 10
833.5164497241603
 20
-7.483619624883864
 30
0.0
 10
833.5808362769592
 20
-7.49221261582761
 30
0.0
  0
SPLINE
  5
1C8
330
1F
100
AcDbEntity
  8
0
  6
Continuous
 62
     7
370
    25
100
AcDbSpline
210
0.0
220
0.0
230
1.0
 70
     8
 71
     3
 72
    14
 73
    10
 74
     0
 42
0.00000001
 43
0.00000001
 40
0.0
 40
0.0
 40
0.0
 40
0.0
 40
0.25
 40
0.25
 40
0.5
 40
0.5
 40
0.75
 40
0.75
 40
1.0
 40
1.0
 40
1.0
 40
1.0
 10
854.9353197312518
 20
-6.498071420924678
 30
0.0
 10
854.8693099571026
 20
-6.550746987262768
 30
0.0
 10
854.8018099209659
 20
-6.605252326564115
 30
0.0
 10
854.6727025170596
 20
-6.740525109777962
 30
0.0
 10
854.6127572739642
 20
-6.820133426882591
 30
0.0
 10
854.516768190952
 20
-7.00280922691493
 30
0.0
 10
854.4800728621808
 20
-7.107183973845743
 30
0.0
 10
854.425681645226
 20
-7.32129451054403
 30
0.0
 10
854.4083189594357
 20
-7.428324633290462
 30
0.0
 10
854.391755274055
 20
-7.532525639830645
 30
0.0
  0
SPLINE
  5
1C9
330
1F
100
AcDbEntity
  8
0
  6
Continuous
 62
     7
370
    25
100
AcDbSpline
210
0.0
220
0.0
230
1.0
 70
     8
 71
     3
 72
    26
 73
    22
 74
     0
 42
0.00000001
 43
0.00000001
 40
0.0
 40
0.0
 40
0.0
 40
0.0
 40
0.2500000000000113
 40
0.2500000000000113
 40
0.375000000000017
 40
0.375000000000017
 40
0.5000000000000226
 40
0.5000000000000226
 40
0.6250000000000283
 40
0.6250000000000283
 40
0.6875000000000235
 40
0.6875000000000235
 40
0.7500000000000189
 40
0.7500000000000189
 40
0.8125000000000141
 40
0.8125000000000141
 40
0.8750000000000094
 40
0.8750000000000094
 40
0.9375000000000047
 40
0.9375000000000047
 40
1.0
 40
1.0
 40
1.0
 40
1.0
 10
833.5808375704066
 20
-7.492203063715619
 30
0.0
 10
835.4417304503316
 20
-7.491812834243106
 30
0.0
 10
837.3032263142276
 20
-7.490247951167373
 30
0.0
 10
840.0951736853578
 20
-7.486011985341101
 30
0.0
 10
841.025245634946
 20
-7.484451874747055
 30
0.0
 10
842.8863771541476
 20
-7.480944298605796
 30
0.0
 10
843.8189798622416
 20
-7.478790030657323
 30
0.0
 10
845.6832434227579
 20
-7.474412977096501
 30
0.0
 10
846.6137696055689
 20
-7.472363400360726
 30
0.0
 10
847.9904165284373
 20
-7.471539833225959
 30
0.0
 10
848.4458535111103
 20
-7.47165740693273
 30
0.0
 10
849.3457472385388
 20
-7.473103682829885
 30
0.0
 10
849.7906824164658
 20
-7.474379762887951
 30
0.0
 10
850.659967164859
 20
-7.479176660170673
 30
0.0
 10
851.0845940283004
 20
-7.482810286352226
 30
0.0
 10
851.8996408920926
 20
-7.493097766564594
 30
0.0
 10
852.2890847614693
 20
-7.499567224105331
 30
0.0
 10
853.0083899651398
 20
-7.513096393813923
 30
0.0
 10
853.3384143325418
 20
-7.519984050900208
 30
0.0
 10
853.9199491567477
 20
-7.529642067279408
 30
0.0
 10
854.1724752255358
 20
-7.532503456673001
 30
0.0
 10
854.3917438671879
 20
-7.532525248290178
 30
0.0
  0
SPLINE
  5
1CA
330
1F
100
AcDbEntity
  8
0
  6
Continuous
 62
     7
370
    25
100
AcDbSpline
210
0.0
220
0.0
230
1.0
 70
     8
 71
     3
 72
     9
 73
     5
 74
     0
 42
0.00000001
 43
0.00000001
 40
0.0
 40
0.0
 40
0.0
 40
0.0
 40
0.4999999999999999
 40
1.0
 40
1.0
 40
1.0
 40
1.0
 10
828.5659365176306
 20
-30.11047740059175
 30
0.0
 10
829.6942214457309
 20
-26.48749276036611
 30
0.0
 10
831.7149360971113
 20
-19.0884704445059
 30
0.0
 10
833.0543597832686
 20
-11.3823643556103
 30
0.0
 10
833.5808376008703
 20
-7.492225965495313
 30
0.0
  0
SPLINE
  5
1CB
330
1F
100
AcDbEntity
  8
0
  6
Continuous
 62
     7
370
    25
100
AcDbSpline
210
0.0
220
0.0
230
1.0
 70
     8
 71
     3
 72
     8
 73
     4
 74
     0
 42
0.00000001
 43
0.00000001
 40
0.0
 40
0.0
 40
0.0
 40
0.0
 40
1.0
 40
1.0
 40
1.0
 40
1.0
 10
849.3831598546677
 20
-30.06571834401123
 30
0.0
 10
851.5356000335397
 20
-22.61600878340914
 30
0.0
 10
853.1450454092633
 20
-15.37597374855293
 30
0.0
 10
854.391752546587
 20
-7.532528420005513
 30
0.0
  0
SPLINE
  5
1CC
330
1F
100
AcDbEntity
  8
0
  6
Continuous
 62
     7
370
    25
100
AcDbSpline
210
0.0
220
0.0
230
1.0
 70
     8
 71
     3
 72
    28
 73
    24
 74
     0
 42
0.00000001
 43
0.00000001
 40
0.0
 40
0.0
 40
0.0
 40
0.0
 40
0.0156250000000037
 40
0.0156250000000037
 40
0.0312500000000075
 40
0.0312500000000075
 40
0.0468750000000112
 40
0.0468750000000112
 40
0.0625000000000149
 40
0.0625000000000149
 40
0.0937500000000102
 40
0.0937500000000102
 40
0.1250000000000055
 40
0.1250000000000055
 40
0.1874999999999969
 40
0.1874999999999969
 40
0.2499999999999884
 40
0.2499999999999884
 40
0.3749999999999876
 40
0.3749999999999876
 40
0.4999999999999867
 40
0.4999999999999867
 40
1.0
 40
1.0
 40
1.0
 40
1.0
 10
849.3827829042242
 20
-30.06550107092976
 30
0.0
 10
849.2390873743708
 20
-30.06559503020634
 30
0.0
 10
849.0810816599529
 20
-30.0648433044291
 30
0.0
 10
848.765762689861
 20
-30.06305107454116
 30
0.0
 10
848.6114877329672
 20
-30.06228652122967
 30
0.0
 10
848.3179100611906
 20
-30.06179548835958
 30
0.0
 10
848.175822677281
 20
-30.0619345122618
 30
0.0
 10
847.8966865267035
 20
-30.06275237186873
 30
0.0
 10
847.7605775797867
 20
-30.06343351838303
 30
0.0
 10
847.3648819598176
 20
-30.06596895070718
 30
0.0
 10
847.1158393149813
 20
-30.06823872769637
 30
0.0
 10
846.6310755071357
 20
-30.07262652344711
 30
0.0
 10
846.3960512913229
 20
-30.0748602111251
 30
0.0
 10
845.7042814124618
 20
-30.08121848999229
 30
0.0
 10
845.2618721852556
 20
-30.08470603504515
 30
0.0
 10
844.3889506161979
 20
-30.09018861913598
 30
0.0
 10
843.9591418783649
 20
-30.09232662493239
 30
0.0
 10
842.6815790042651
 20
-30.09767066991609
 30
0.0
 10
841.8454156029562
 20
-30.09974909679242
 30
0.0
 10
840.1839057124823
 20
-30.10200057917017
 30
0.0
 10
839.355657341292
 20
-30.10259925051473
 30
0.0
 10
835.205949310151
 20
-30.10674883570213
 30
0.0
 10
831.8861441945617
 20
-30.10994793649491
 30
0.0
 10
828.5659478839625
 20
-30.11048296838215
 30
0.0
  0
SPLINE
  5
1CD
330
1F
100
AcDbEntity
  8
0
  6
Continuous
 62
     7
370
    25
100
AcDbSpline
210
0.0
220
0.0
230
1.0
 70
     8
 71
     3
 72
    15
 73
    11
 74
     0
 42
0.00000001
 43
0.00000001
 40
0.0
 40
0.0
 40
0.0
 40
0.0
 40
0.094977495647381
 40
0.1798511787152123
 40
0.2536990995431375
 40
0.4790675977869158
 40
0.5816192610975185
 40
0.7238540709142204
 40
0.8801407466008516
 40
0.9999999999999999
 40
0.9999999999999999
 40
0.9999999999999999
 40
0.9999999999999999
 10
855.816297371545
 20
-7.492203063715452
 30
0.0
 10
855.8227342803
 20
-7.444989638956456
 30
0.0
 10
855.8349233322327
 20
-7.355585406551568
 30
0.0
 10
855.8585231126814
 20
-7.23229133540465
 30
0.0
 10
855.9059079394556
 20
-7.053255946757764
 30
0.0
 10
855.9804896569078
 20
-6.893360564445505
 30
0.0
 10
856.086491577713
 20
-6.747943539064549
 30
0.0
 10
856.1868440173102
 20
-6.639664519647592
 30
0.0
 10
856.3013351378249
 20
-6.540081250180685
 30
0.0
 10
856.3860668442874
 20
-6.474936747263293
 30
0.0
 10
856.4228440624396
 20
-6.446661220955219
 30
0.0
  0
SPLINE
  5
1CE
330
1F
100
AcDbEntity
  8
0
  6
Continuous
 62
     7
370
    25
100
AcDbSpline
210
0.0
220
0.0
230
1.0
 70
     8
 71
     3
 72
    22
 73
    18
 74
     0
 42
0.00000001
 43
0.00000001
 40
0.0
 40
0.0
 40
0.0
 40
0.0
 40
0.2825456090251411
 40
0.5300616500889368
 40
0.6151425872896545
 40
0.6869947590890765
 40
0.7443393068164808
 40
0.7877868699773022
 40
0.8145475434231891
 40
0.8432750089238806
 40
0.873296594717288
 40
0.9040480749872576
 40
0.9294688603175818
 40
0.9512178578061374
 40
0.9699219872002077
 40
0.9860640873565666
 40
1.0
 40
1.0
 40
1.0
 40
1.0
 10
855.8164658457031
 20
-7.492225965496646
 30
0.0
 10
855.8157441660395
 20
-7.490790771086775
 30
0.0
 10
855.8143902794416
 20
-7.488098315452052
 30
0.0
 10
855.8103058287414
 20
-7.478544955213772
 30
0.0
 10
855.8116710527124
 20
-7.473297075174024
 30
0.0
 10
855.8080645113749
 20
-7.472137115739796
 30
0.0
 10
855.7836290700544
 20
-7.472926139592273
 30
0.0
 10
855.7406490443624
 20
-7.475501936996976
 30
0.0
 10
855.6856366968689
 20
-7.480479279536767
 30
0.0
 10
855.6181125408644
 20
-7.486732115872085
 30
0.0
 10
855.5163983225758
 20
-7.495085443018468
 30
0.0
 10
855.376389782928
 20
-7.505306014293389
 30
0.0
 10
855.2014908218027
 20
-7.515268302393574
 30
0.0
 10
855.0105190233489
 20
-7.522795368788026
 30
0.0
 10
854.8083696024507
 20
-7.528204161844076
 30
0.0
 10
854.6048522146374
 20
-7.531725183595017
 30
0.0
 10
854.4592252447335
 20
-7.532274095213232
 30
0.0
 10
854.3917525448377
 20
-7.532528420005624
 30
0.0
  0
SPLINE
  5
1CF
330
1F
100
AcDbEntity
  8
0
  6
Continuous
 62
     7
370
    25
100
AcDbSpline
210
0.0
220
0.0
230
1.0
 70
     8
 71
     3
 72
    10
 73
     6
 74
     0
 42
0.00000001
 43
0.00000001
 40
0.0
 40
0.0
 40
0.0
 40
0.0
 40
0.5
 40
0.5
 40
1.0
 40
1.0
 40
1.0
 40
1.0
 10
850.7830093075964
 20
-30.11048063487431
 30
0.0
 10
851.9157400797343
 20
-26.48396026654287
 30
0.0
 10
852.9278226226893
 20
-22.79153202399675
 30
0.0
 10
854.6148759901429
 20
-15.24179914437784
 30
0.0
 10
855.2873255463074
 20
-11.38744236683231
 30
0.0
 10
855.8164658457029
 20
-7.492225965496646
 30
0.0
  0
SPLINE
  5
1D0
330
1F
100
AcDbEntity
  8
0
  6
Continuous
 62
     7
370
    25
100
AcDbSpline
210
0.0
220
0.0
230
1.0
 70
     8
 71
     3
 72
    21
 73
    17
 74
     0
 42
0.00000001
 43
0.00000001
 40
0.0
 40
0.0
 40
0.0
 40
0.0
 40
0.0040712229189065
 40
0.0149509764361936
 40
0.0251619324184017
 40
0.0359210667793789
 40
0.0585725256300072
 40
0.0838217488033286
 40
0.1248210826655333
 40
0.1946499176440628
 40
0.2645081725360958
 40
0.336505446008069
 40
0.4419958637012261
 40
0.6012817492846221
 40
0.8214027947972938
 40
1.0
 40
1.0
 40
1.0
 40
1.0
 10
849.3831598542265
 20
-30.06571834401134
 30
0.0
 10
849.4032788678444
 20
-30.06561039959132
 30
0.0
 10
849.4771630310329
 20
-30.06521398934503
 30
0.0
 10
849.5941014207189
 20
-30.06411076084225
 30
0.0
 10
849.7301742224857
 20
-30.06309483238467
 30
0.0
 10
849.8991858455589
 20
-30.06230929741938
 30
0.0
 10
850.0913665574591
 20
-30.06243257527147
 30
0.0
 10
850.3162324207806
 20
-30.06444095656724
 30
0.0
 10
850.5478815609159
 20
-30.07144865354661
 30
0.0
 10
850.695323073776
 20
-30.08215713031453
 30
0.0
 10
850.7637013164783
 20
-30.09198407304814
 30
0.0
 10
850.7845710383281
 20
-30.09821573970622
 30
0.0
 10
850.7791804895912
 20
-30.10161681889917
 30
0.0
 10
850.7812366897425
 20
-30.10528351084457
 30
0.0
 10
850.7822654049104
 20
-30.10883098288181
 30
0.0
 10
850.7827791752845
 20
-30.10997030168922
 30
0.0
 10
850.7830093075966
 20
-30.11048063487431
 30
0.0
  0
SPLINE
  5
1D3
330
1F
100
AcDbEntity
  8
0
  6
Continuous
 62
     7
370
    25
100
AcDbSpline
210
0.0
220
0.0
230
1.0
 70
     8
 71
     3
 72
    15
 73
    11
 74
     0
 42
0.00000001
 43
0.00000001
 40
0.0
 40
0.0
 40
0.0
 40
0.0
 40
0.2500000000000612
 40
0.2500000000000612
 40
0.5000000000001223
 40
0.5000000000001223
 40
0.625000000000076
 40
0.7500000000000299
 40
0.7500000000000299
 40
1.0
 40
1.0
 40
1.0
 40
1.0
 10
828.2632378542434
 20
-30.80973006558324
 30
0.0
 10
828.2958880093936
 20
-30.77985949444822
 30
0.0
 10
828.3285246997802
 20
-30.74499747244602
 30
0.0
 10
828.3919476871416
 20
-30.65678223658691
 30
0.0
 10
828.4227130275477
 20
-30.60180280386038
 30
0.0
 10
828.4628434424463
 20
-30.4845290579554
 30
0.0
 10
828.4876438559122
 20
-30.39881363744362
 30
0.0
 10
828.5074258336194
 20
-30.32442488578313
 30
0.0
 10
828.5348917167183
 20
-30.2202681688708
 30
0.0
 10
828.550437177972
 20
-30.1602854083729
 30
0.0
 10
828.5659478839913
 20
-30.11048166608138
 30
0.0
  0
SPLINE
  5
1D4
330
1F
100
AcDbEntity
  8
0
  6
Continuous
 62
     7
370
    25
100
AcDbSpline
210
0.0
220
0.0
230
1.0
 70
     8
 71
     3
 72
    14
 73
    10
 74
     0
 42
0.00000001
 43
0.00000001
 40
0.0
 40
0.0
 40
0.0
 40
0.0
 40
0.25
 40
0.25
 40
0.5
 40
0.5
 40
0.75
 40
0.75
 40
1.0
 40
1.0
 40
1.0
 40
1.0
 10
848.9609330760325
 20
-30.7911864308214
 30
0.0
 10
849.0058848828198
 20
-30.74937855308768
 30
0.0
 10
849.0516599360739
 20
-30.70646484816669
 30
0.0
 10
849.1411950018904
 20
-30.60583225387808
 30
0.0
 10
849.1839894215507
 20
-30.54881247690117
 30
0.0
 10
849.2576435777294
 20
-30.42205333278353
 30
0.0
 10
849.2889229652526
 20
-30.35158516709557
 30
0.0
 10
849.3414119211126
 20
-30.20778681708774
 30
0.0
 10
849.3623190045665
 20
-30.13594760965394
 30
0.0
 10
849.3826149007965
 20
-30.06550118338108
 30
0.0
  0
SPLINE
  5
1D5
330
1F
100
AcDbEntity
  8
0
  6
Continuous
 62
     7
370
    25
100
AcDbSpline
210
0.0
220
0.0
230
1.0
 70
     8
 71
     3
 72
    22
 73
    18
 74
     0
 42
0.00000001
 43
0.00000001
 40
0.0
 40
0.0
 40
0.0
 40
0.0
 40
0.1240525520633857
 40
0.2395573417811374
 40
0.3465146564742293
 40
0.4449241372061219
 40
0.5347916523042938
 40
0.6161666799791652
 40
0.6895866269182573
 40
0.7552688134936637
 40
0.8133756607221992
 40
0.8643897565819786
 40
0.9086039087267794
 40
0.9460521729032249
 40
0.9750318232487197
 40
0.9935708894977021
 40
1.0
 40
1.0
 40
1.0
 40
1.0
 10
828.2632378543531
 20
-30.80972814216276
 30
0.0
 10
829.1306979979709
 20
-30.80985896319693
 30
0.0
 10
830.8058464947147
 20
-30.81011159112484
 30
0.0
 10
833.2289127347028
 20
-30.81121438870904
 30
0.0
 10
835.4726649671
 20
-30.81251347925679
 30
0.0
 10
837.5371434015439
 20
-30.81400796860384
 30
0.0
 10
839.422735451959
 20
-30.81524860081292
 30
0.0
 10
841.1335770913427
 20
-30.81678022522744
 30
0.0
 10
842.6753182873684
 20
-30.81868161763957
 30
0.0
 10
844.0541344002609
 20
-30.82010214602338
 30
0.0
 10
845.2746924393067
 20
-30.82088927495485
 30
0.0
 10
846.3400252836741
 20
-30.81999694715626
 30
0.0
 10
847.2481025986538
 20
-30.81535875793334
 30
0.0
 10
847.9795809755658
 20
-30.80605324910013
 30
0.0
 10
848.5027384034526
 20
-30.79621711536373
 30
0.0
 10
848.8032196714973
 20
-30.79145159272628
 30
0.0
 10
848.9285409043498
 20
-30.79124066411348
 30
0.0
 10
848.9608101430016
 20
-30.79118635164313
 30
0.0
  0
SPLINE
  5
1D6
330
1F
100
AcDbEntity
  8
0
  6
Continuous
 62
     7
370
    25
100
AcDbSpline
210
0.0
220
0.0
230
1.0
 70
     8
 71
     3
 72
    11
 73
     7
 74
     0
 42
0.00000001
 43
0.00000001
 40
0.0
 40
0.0
 40
0.0
 40
0.0
 40
0.25
 40
0.5
 40
0.75
 40
1.0
 40
1.0
 40
1.0
 40
1.0
 10
782.2452941883248
 20
-66.17703485706289
 30
0.0
 10
786.2237493830826
 20
-63.62412790887151
 30
0.0
 10
794.0775442276916
 20
-58.21801104381586
 30
0.0
 10
805.6821846426358
 20
-49.60986701547754
 30
0.0
 10
817.1112087955422
 20
-40.5482812473893
 30
0.0
 10
824.5941785785503
 20
-34.16636201973139
 30
0.0
 10
828.2632416596208
 20
-30.80973359749095
 30
0.0
  0
SPLINE
  5
1D7
330
1F
100
AcDbEntity
  8
0
  6
Continuous
 62
     7
370
    25
100
AcDbSpline
210
0.0
220
0.0
230
1.0
 70
     8
 71
     3
 72
     8
 73
     4
 74
     0
 42
0.00000001
 43
0.00000001
 40
0.0
 40
0.0
 40
0.0
 40
0.0
 40
1.0
 40
1.0
 40
1.0
 40
1.0
 10
802.7706450140806
 20
-66.29372501365293
 30
0.0
 10
813.7598983574358
 20
-59.47483748739935
 30
0.0
 10
838.8469793172352
 20
-40.18962967897799
 30
0.0
 10
848.9608208770521
 20
-30.79120696097265
 30
0.0
  0
SPLINE
  5
1D8
330
1F
100
AcDbEntity
  8
0
  6
Continuous
 62
     7
370
    25
100
AcDbSpline
210
0.0
220
0.0
230
1.0
 70
     8
 71
     3
 72
    22
 73
    18
 74
     0
 42
0.00000001
 43
0.00000001
 40
0.0
 40
0.0
 40
0.0
 40
0.0
 40
0.0312499999999976
 40
0.0312499999999976
 40
0.0624999999999952
 40
0.0624999999999952
 40
0.1249999999999933
 40
0.1249999999999933
 40
0.1874999999999915
 40
0.1874999999999915
 40
0.2499999999999896
 40
0.2499999999999896
 40
0.3749999999999858
 40
0.3749999999999858
 40
0.4999999999999821
 40
0.4999999999999821
 40
1.0
 40
1.0
 40
1.0
 40
1.0
 10
802.7706440083216
 20
-66.29372440474235
 30
0.0
 10
802.5863646079712
 20
-66.29373079518447
 30
0.0
 10
802.384105995337
 20
-66.29144243604202
 30
0.0
 10
801.9590239779475
 20
-66.28378699752768
 30
0.0
 10
801.7364755196536
 20
-66.27843262657068
 30
0.0
 10
801.0557454588842
 20
-66.25977749984958
 30
0.0
 10
800.588710145272
 20
-66.24375221451373
 30
0.0
 10
799.6733671946896
 20
-66.21612298378166
 30
0.0
 10
799.2250583716268
 20
-66.20574992032086
 30
0.0
 10
798.3475394693141
 20
-66.19266361669246
 30
0.0
 10
797.9168162475248
 20
-66.1892999839217
 30
0.0
 10
796.6358875638982
 20
-66.18385180726888
 30
0.0
 10
795.7949158274091
 20
-66.18574589873532
 30
0.0
 10
794.1025800985991
 20
-66.1849442166541
 30
0.0
 10
793.2540796264816
 20
-66.18340491363173
 30
0.0
 10
789.0196372836177
 20
-66.17949474803348
 30
0.0
 10
785.6327358757677
 20
-66.17714201710211
 30
0.0
 10
782.2452941878805
 20
-66.17704427253813
 30
0.0
  0
SPLINE
  5
1DA
330
1F
100
AcDbEntity
  8
0
  6
Continuous
 62
     7
370
    25
100
AcDbSpline
210
0.0
220
0.0
230
1.0
 70
     8
 71
     3
 72
    13
 73
     9
 74
     0
 42
0.00000001
 43
0.00000001
 40
0.0
 40
0.0
 40
0.0
 40
0.0
 40
0.1429658182299455
 40
0.3114926123020337
 40
0.5084985400646048
 40
0.7345000738962874
 40
0.9854141907943442
 40
1.0
 40
1.0
 40
1.0
 40
1.0
 10
819.1648098212951
 20
-18.38871741613601
 30
0.0
 10
819.264581472886
 20
-18.38329249471915
 30
0.0
 10
819.481963031447
 20
-18.37147272573814
 30
0.0
 10
819.8230818801463
 20
-18.26359183289589
 30
0.0
 10
820.1852497174793
 20
-18.05494944641306
 30
0.0
 10
820.5046696989966
 20
-17.71095357191804
 30
0.0
 10
820.7006747973998
 20
-17.40969567431255
 30
0.0
 10
820.7289629467977
 20
-17.22674344670677
 30
0.0
 10
820.7305170170978
 20
-17.21669257277708
 30
0.0
  0
SPLINE
  5
1DB
330
1F
100
AcDbEntity
  8
0
  6
Continuous
 62
     7
370
    25
100
AcDbSpline
210
0.0
220
0.0
230
1.0
 70
     8
 71
     3
 72
    13
 73
     9
 74
     0
 42
0.00000001
 43
0.00000001
 40
0.0
 40
0.0
 40
0.0
 40
0.0
 40
0.0053986957250137
 40
0.2586521096287546
 40
0.4867606780023655
 40
0.685603311417873
 40
0.8557012973766143
 40
1.0
 40
1.0
 40
1.0
 40
1.0
 10
817.6022034349944
 20
-17.2357491466823
 30
0.0
 10
817.6027910239242
 20
-17.23943033881109
 30
0.0
 10
817.6309424745789
 20
-17.41579666107912
 30
0.0
 10
817.8256448609959
 20
-17.71077249136366
 30
0.0
 10
818.1442164533203
 20
-18.05498943786643
 30
0.0
 10
818.506570294792
 20
-18.26358335566436
 30
0.0
 10
818.8476503485493
 20
-18.37147435763575
 30
0.0
 10
819.0650361995858
 20
-18.38329300808972
 30
0.0
 10
819.1648098212951
 20
-18.38871741613601
 30
0.0
  0
SPLINE
  5
1DC
330
1F
100
AcDbEntity
  8
0
  6
Continuous
 62
     7
370
    25
100
AcDbSpline
210
0.0
220
0.0
230
1.0
 70
     8
 71
     3
 72
    14
 73
    10
 74
     0
 42
0.00000001
 43
0.00000001
 40
0.0
 40
0.0
 40
0.0
 40
0.0
 40
0.1153824141319394
 40
0.2335499116027378
 40
0.355880021096225
 40
0.481637696532612
 40
0.6598813028158067
 40
0.8343537618379564
 40
1.0
 40
1.0
 40
1.0
 40
1.0
 10
850.3378833762654
 20
-30.80972814216259
 30
0.0
 10
850.3589039684609
 20
-30.79054440593548
 30
0.0
 10
850.4014525447409
 20
-30.75171387934483
 30
0.0
 10
850.4695008584835
 20
-30.68550739155801
 30
0.0
 10
850.5379494247582
 20
-30.61028889468936
 30
0.0
 10
850.6122944701993
 20
-30.51292083037399
 30
0.0
 10
850.6816657022842
 20
-30.39177241126317
 30
0.0
 10
850.738692585584
 20
-30.25161020106304
 30
0.0
 10
850.76849680713
 20
-30.15670443128315
 30
0.0
 10
850.7830122019651
 20
-30.11048296838198
 30
0.0
  0
SPLINE
  5
1DD
330
1F
100
AcDbEntity
  8
0
  6
Continuous
 62
     7
370
    25
100
AcDbSpline
210
0.0
220
0.0
230
1.0
 70
     8
 71
     3
 72
    11
 73
     7
 74
     0
 42
0.00000001
 43
0.00000001
 40
0.0
 40
0.0
 40
0.0
 40
0.0
 40
0.2218207095560453
 40
0.48117810687446
 40
0.7405370874881643
 40
1.0
 40
1.0
 40
1.0
 40
1.0
 10
805.9653278457156
 20
-65.01131555791434
 30
0.0
 10
809.3474996175097
 20
-62.75268372295994
 30
0.0
 10
816.6841771240117
 20
-57.85321246689501
 30
0.0
 10
827.7128641319581
 20
-49.58456633189284
 30
0.0
 10
839.1872407578279
 20
-40.59382272187823
 30
0.0
 10
846.6205031198422
 20
-34.0715303273082
 30
0.0
 10
850.3378788271281
 20
-30.80973084781047
 30
0.0
  0
SPLINE
  5
1DF
330
1F
100
AcDbEntity
  8
0
  6
Continuous
 62
     7
370
    25
100
AcDbSpline
210
0.0
220
0.0
230
1.0
 70
     8
 71
     3
 72
     9
 73
     5
 74
     0
 42
0.00000001
 43
0.00000001
 40
0.0
 40
0.0
 40
0.0
 40
0.0
 40
0.247551853901344
 40
1.0
 40
1.0
 40
1.0
 40
1.0
 10
858.9479133040323
 20
7.299273090896897
 30
0.0
 10
858.9343554180266
 20
7.307796408827228
 30
0.0
 10
858.8795875550845
 20
7.342226843485678
 30
0.0
 10
858.8186076828622
 20
7.338102988001804
 30
0.0
 10
858.772723491059
 20
7.335000000588121
 30
0.0
  0
SPLINE
  5
1E0
330
1F
100
AcDbEntity
  8
0
  6
Continuous
 62
     7
370
    25
100
AcDbSpline
210
0.0
220
0.0
230
1.0
 70
     8
 71
     3
 72
    15
 73
    11
 74
     0
 42
0.00000001
 43
0.00000001
 40
0.0
 40
0.0
 40
0.0
 40
0.0
 40
0.2500000000000347
 40
0.2500000000000347
 40
0.5000000000000695
 40
0.5000000000000695
 40
0.6250000000000923
 40
0.7500000000001149
 40
0.7500000000001149
 40
1.0
 40
1.0
 40
1.0
 40
1.0
 10
781.663325928756
 20
-66.4274999994115
 30
0.0
 10
781.7135366153053
 20
-66.42749999941022
 30
0.0
 10
781.7637959029432
 20
-66.42752201045549
 30
0.0
 10
781.8640424352376
 20
-66.42002398705776
 30
0.0
 10
781.9140511188458
 20
-66.41158114035511
 30
0.0
 10
781.9879276938027
 20
-66.37026835371258
 30
0.0
 10
782.0367463769513
 20
-66.33548465787703
 30
0.0
 10
782.0839499884202
 20
-66.29747939847402
 30
0.0
 10
782.1539730452762
 20
-66.24153622452455
 30
0.0
 10
782.1996234288902
 20
-66.2063485564009
 30
0.0
 10
782.2452941879097
 20
-66.17704635775712
 30
0.0
  0
SPLINE
  5
1E1
330
1F
100
AcDbEntity
  8
0
  6
Continuous
 62
     7
370
    25
100
AcDbSpline
210
0.0
220
0.0
230
1.0
 70
     8
 71
     3
 72
    14
 73
    10
 74
     0
 42
0.00000001
 43
0.00000001
 40
0.0
 40
0.0
 40
0.0
 40
0.0
 40
0.25
 40
0.25
 40
0.5
 40
0.5
 40
0.75
 40
0.75
 40
1.0
 40
1.0
 40
1.0
 40
1.0
 10
802.3196112780486
 20
-66.4274999994115
 30
0.0
 10
802.3561617938354
 20
-66.42749999941155
 30
0.0
 10
802.3934960983436
 20
-66.42741999047941
 30
0.0
 10
802.4717802304274
 20
-66.42061494828904
 30
0.0
 10
802.5120319749108
 20
-66.4137920527777
 30
0.0
 10
802.5905573327431
 20
-66.3905022413896
 30
0.0
 10
802.6292514288124
 20
-66.37392194891967
 30
0.0
 10
802.7027788189251
 20
-66.33572962151618
 30
0.0
 10
802.7370470847364
 20
-66.31457874300834
 30
0.0
 10
802.7706575955972
 20
-66.29372440426707
 30
0.0
  0
SPLINE
  5
1E2
330
1F
100
AcDbEntity
  8
0
  6
Continuous
 62
     7
370
    25
100
AcDbSpline
210
0.0
220
0.0
230
1.0
 70
    24
 71
     3
 72
    20
 73
    16
 74
     0
 42
0.00000001
 43
0.00000001
 40
0.0
 40
0.0
 40
0.0
 40
0.0
 40
0.500000000000016
 40
0.500000000000016
 40
0.62500000000002
 40
0.62500000000002
 40
0.750000000000024
 40
0.750000000000024
 40
0.812500000000018
 40
0.812500000000018
 40
0.875000000000012
 40
0.875000000000012
 40
0.937500000000006
 40
0.937500000000006
 40
1.0
 40
1.0
 40
1.0
 40
1.0
 10
781.663332720904
 20
-66.4274999994115
 30
0.0
 10
785.1480896180534
 20
-66.4274999994115
 30
0.0
 10
788.6328342170775
 20
-66.42749999941122
 30
0.0
 10
792.988832874049
 20
-66.4274999994115
 30
0.0
 10
793.8599328238887
 20
-66.4274999994115
 30
0.0
 10
795.6023608026094
 20
-66.4274999994115
 30
0.0
 10
796.4735016826878
 20
-66.42749999941161
 30
0.0
 10
797.7799759606005
 20
-66.4274999994115
 30
0.0
 10
798.2161552102839
 20
-66.4274999994115
 30
0.0
 10
799.0883709763065
 20
-66.42749999941144
 30
0.0
 10
799.5240603605463
 20
-66.42749999941138
 30
0.0
 10
800.3861423375512
 20
-66.42749999941138
 30
0.0
 10
800.8149090359615
 20
-66.42749999941144
 30
0.0
 10
801.6312110886394
 20
-66.4274999994115
 30
0.0
 10
802.012113160422
 20
-66.4274999994115
 30
0.0
 10
802.3196230956581
 20
-66.4274999994115
 30
0.0
  0
SPLINE
  5
1E4
330
1F
100
AcDbEntity
  8
0
  6
Continuous
 62
     7
370
    25
100
AcDbSpline
210
0.0
220
0.0
230
1.0
 70
    24
 71
     3
 72
    13
 73
     9
 74
     0
 42
0.00000001
 43
0.00000001
 40
0.0
 40
0.0
 40
0.0
 40
0.0
 40
0.0452924777586537
 40
0.2006064553874485
 40
0.428318224892802
 40
0.6150358425920064
 40
0.8184172420695244
 40
0.9999999999999999
 40
0.9999999999999999
 40
0.9999999999999999
 40
0.9999999999999999
 10
803.4023451582304
 20
-66.42749999941138
 30
0.0
 10
803.4025206120078
 20
-66.42749999941138
 30
0.0
 10
803.4032977203068
 20
-66.42749999941144
 30
0.0
 10
803.4050809865565
 20
-66.42749999941138
 30
0.0
 10
803.4121280969466
 20
-66.42749999941144
 30
0.0
 10
803.4016780777278
 20
-66.42749999941138
 30
0.0
 10
803.391566981718
 20
-66.42749999941144
 30
0.0
 10
802.6631895716333
 20
-66.4274999994115
 30
0.0
 10
802.3196230956581
 20
-66.4274999994115
 30
0.0
  0
SPLINE
  5
1ED
330
1F
100
AcDbEntity
  8
0
  6
Continuous
 62
     8
370
    25
100
AcDbSpline
210
0.0
220
0.0
230
1.0
 70
     8
 71
     3
 72
     9
 73
     5
 74
     0
 42
0.00000001
 43
0.00000001
 40
0.0
 40
0.0
 40
0.0
 40
0.0
 40
0.0556321534066051
 40
1.0
 40
1.0
 40
1.0
 40
1.0
 10
-804.2495076715958
 20
-66.18319637195458
 30
0.0
 10
-804.2495208347689
 20
-66.18300328732867
 30
0.0
 10
-804.2497574456577
 20
-66.17953254938219
 30
0.0
 10
-804.2506087665017
 20
-66.17825388617149
 30
0.0
 10
-804.2514127265342
 20
-66.17704635774874
 30
0.0
  0
SPLINE
  5
1F2
330
1F
100
AcDbEntity
  8
0
  6
Continuous
 62
     8
370
    25
100
AcDbSpline
210
0.0
220
0.0
230
1.0
 70
     8
 71
     3
 72
     9
 73
     5
 74
     0
 42
0.00000001
 43
0.00000001
 40
0.0
 40
0.0
 40
0.0
 40
0.0
 40
0.0585417161094136
 40
1.0
 40
1.0
 40
1.0
 40
1.0
 10
804.2490620674629
 20
-66.18330062923367
 30
0.0
 10
804.2492280203887
 20
-66.18307183476585
 30
0.0
 10
804.2520628010683
 20
-66.17916360516479
 30
0.0
 10
804.2517279627625
 20
-66.17807306027201
 30
0.0
 10
804.251412726466
 20
-66.1770463577488
 30
0.0
  0
SPLINE
  5
1F4
330
1F
100
AcDbEntity
  8
0
  6
Continuous
 62
     8
370
    25
100
AcDbSpline
210
0.0
220
0.0
230
1.0
 70
     8
 71
     3
 72
     9
 73
     5
 74
     0
 42
0.00000001
 43
0.00000001
 40
0.0
 40
0.0
 40
0.0
 40
0.0
 40
0.1959281807859783
 40
1.0
 40
1.0
 40
1.0
 40
1.0
 10
-838.1091946627693
 20
-3.226662739689912
 30
0.0
 10
-838.1212911561463
 20
-3.243957467618186
 30
0.0
 10
-838.1830305819335
 20
-3.332228219987188
 30
0.0
 10
-838.2726659080492
 20
-3.372880405277723
 30
0.0
 10
-838.3447391477849
 20
-3.405567681859289
 30
0.0
  0
SPLINE
  5
1F5
330
1F
100
AcDbEntity
  8
0
  6
Continuous
 62
     8
370
    25
100
AcDbSpline
210
0.0
220
0.0
230
1.0
 70
     8
 71
     3
 72
     9
 73
     5
 74
     0
 42
0.00000001
 43
0.00000001
 40
0.0
 40
0.0
 40
0.0
 40
0.0
 40
0.3038499600732624
 40
1.0
 40
1.0
 40
1.0
 40
1.0
 10
-836.3899640058852
 20
7.285657669055534
 30
0.0
 10
-836.4104126796027
 20
7.297361404980885
 30
0.0
 10
-836.4777112690524
 20
7.335879547035407
 30
0.0
 10
-836.5509765551764
 20
7.335360992411777
 30
0.0
 10
-836.601980187037
 20
7.335000000589787
 30
0.0
  0
SPLINE
  5
1F6
330
1F
100
AcDbEntity
  8
0
  6
Continuous
 62
     8
370
    25
100
AcDbSpline
210
0.0
220
0.0
230
1.0
 70
     8
 71
     3
 72
     9
 73
     5
 74
     0
 42
0.00000001
 43
0.00000001
 40
0.0
 40
0.0
 40
0.0
 40
0.0
 40
0.244971262057764
 40
1.0
 40
1.0
 40
1.0
 40
1.0
 10
-828.337827885049
 20
-30.0298514374891
 30
0.0
 10
-828.354370248348
 20
-30.03780448129306
 30
0.0
 10
-828.4218980194016
 20
-30.07026969267002
 30
0.0
 10
-828.5039763702201
 20
-30.09318182905296
 30
0.0
 10
-828.565947883851
 20
-30.11048115046977
 30
0.0
  0
SPLINE
  5
1F7
330
1F
100
AcDbEntity
  8
0
  6
Continuous
 62
     8
370
    25
100
AcDbSpline
210
0.0
220
0.0
230
1.0
 70
     8
 71
     3
 72
     9
 73
     5
 74
     0
 42
0.00000001
 43
0.00000001
 40
0.0
 40
0.0
 40
0.0
 40
0.0
 40
0.0415026699186847
 40
1.0
 40
1.0
 40
1.0
 40
1.0
 10
-828.0627623579078
 20
-30.67695550395266
 30
0.0
 10
-828.0649711592373
 20
-30.67969413634814
 30
0.0
 10
-828.1181918636823
 20
-30.74568103311454
 30
0.0
 10
-828.1922516994408
 20
-30.77838398195615
 30
0.0
 10
-828.263237854281
 20
-30.80972967110662
 30
0.0
  0
SPLINE
  5
1F8
330
1F
100
AcDbEntity
  8
0
  6
Continuous
 62
     8
370
    25
100
AcDbSpline
210
0.0
220
0.0
230
1.0
 70
     8
 71
     3
 72
    10
 73
     6
 74
     0
 42
0.00000001
 43
0.00000001
 40
0.0
 40
0.0
 40
0.0
 40
0.0
 40
0.2192470140124406
 40
0.4820662799622355
 40
1.0
 40
1.0
 40
1.0
 40
1.0
 10
-782.0258973972306
 20
-66.02751306052618
 30
0.0
 10
-782.0404143933815
 20
-66.04309404826947
 30
0.0
 10
-782.0723334339318
 20
-66.07735252532731
 30
0.0
 10
-782.1468033583354
 20
-66.13089392700495
 30
0.0
 10
-782.206015833907
 20
-66.15864279342426
 30
0.0
 10
-782.2452960394211
 20
-66.17705075838803
 30
0.0
  0
SPLINE
  5
1FA
330
1F
100
AcDbEntity
  8
0
  6
Continuous
 62
     8
370
    25
100
AcDbSpline
210
0.0
220
0.0
230
1.0
 70
     8
 71
     3
 72
    12
 73
     8
 74
     0
 42
0.00000001
 43
0.00000001
 40
0.0
 40
0.0
 40
0.0
 40
0.0
 40
0.1505090654379543
 40
0.2925538337029583
 40
0.553077147103209
 40
0.8030772169800751
 40
1.0
 40
1.0
 40
1.0
 40
1.0
 10
-802.770644008555
 20
-66.29372440474107
 30
0.0
 10
-803.0909263451528
 20
-66.28889115660137
 30
0.0
 10
-803.713479047652
 20
-66.27949647151443
 30
0.0
 10
-804.2114772054131
 20
-66.21166258579531
 30
0.0
 10
-804.2619699290328
 20
-66.18037424948275
 30
0.0
 10
-804.2444111079698
 20
-66.18697479226115
 30
0.0
 10
-804.2476887302004
 20
-66.18435605018009
 30
0.0
 10
-804.249132913435
 20
-66.1832021821796
 30
0.0
  0
SPLINE
  5
1FB
330
1F
100
AcDbEntity
  8
0
  6
Continuous
 62
     8
370
    25
100
AcDbSpline
210
0.0
220
0.0
230
1.0
 70
     8
 71
     3
 72
     9
 73
     5
 74
     0
 42
0.00000001
 43
0.00000001
 40
0.0
 40
0.0
 40
0.0
 40
0.0
 40
0.4397184012282996
 40
1.0
 40
1.0
 40
1.0
 40
1.0
 10
-781.4313142045406
 20
-66.35961949958624
 30
0.0
 10
-781.4634234079526
 20
-66.38141023454003
 30
0.0
 10
-781.5364456042539
 20
-66.43096634793649
 30
0.0
 10
-781.6177688197645
 20
-66.42874473067906
 30
0.0
 10
-781.663332720968
 20
-66.42749999941022
 30
0.0
  0
SPLINE
  5
1FC
330
1F
100
AcDbEntity
  8
0
  6
Continuous
 62
     8
370
    25
100
AcDbSpline
210
0.0
220
0.0
230
1.0
 70
     8
 71
     3
 72
    12
 73
     8
 74
     0
 42
0.00000001
 43
0.00000001
 40
0.0
 40
0.0
 40
0.0
 40
0.0
 40
0.1330278281823532
 40
0.4220764917652961
 40
0.6133619928098146
 40
0.9556720817577813
 40
1.0
 40
1.0
 40
1.0
 40
1.0
 10
-772.7646067826958
 20
-66.14827415079
 30
0.0
 10
-772.7648700035224
 20
-66.16210878579682
 30
0.0
 10
-772.7657051620344
 20
-66.20600391877984
 30
0.0
 10
-772.7918646685754
 20
-66.26296253149522
 30
0.0
 10
-772.8323929284008
 20
-66.32883430646136
 30
0.0
 10
-772.8674349610507
 20
-66.36743507001297
 30
0.0
 10
-772.8934654527684
 20
-66.38004538581677
 30
0.0
 10
-772.89644983994
 20
-66.38149115430714
 30
0.0
  0
SPLINE
  5
1FD
330
1F
100
AcDbEntity
  8
0
  6
Continuous
 62
     8
370
    25
100
AcDbSpline
210
0.0
220
0.0
230
1.0
 70
     8
 71
     3
 72
     9
 73
     5
 74
     0
 42
0.00000001
 43
0.00000001
 40
0.0
 40
0.0
 40
0.0
 40
0.0
 40
0.1959090014101726
 40
1.0
 40
1.0
 40
1.0
 40
1.0
 10
838.1091990911714
 20
-3.226658178764996
 30
0.0
 10
838.121294437632
 20
-3.243951083595875
 30
0.0
 10
838.1830340533398
 20
-3.33222117178178
 30
0.0
 10
838.2726665023166
 20
-3.372876831688465
 30
0.0
 10
838.3447391477209
 20
-3.405567681861121
 30
0.0
  0
SPLINE
  5
1FE
330
1F
100
AcDbEntity
  8
0
  6
Continuous
 62
     8
370
    25
100
AcDbSpline
210
0.0
220
0.0
230
1.0
 70
     8
 71
     3
 72
     9
 73
     5
 74
     0
 42
0.00000001
 43
0.00000001
 40
0.0
 40
0.0
 40
0.0
 40
0.0
 40
0.2449472508737452
 40
1.0
 40
1.0
 40
1.0
 40
1.0
 10
828.3378168713647
 20
-30.02984849644191
 30
0.0
 10
828.3543582155647
 20
-30.03780132903
 30
0.0
 10
828.4218884456077
 20
-30.07026886054831
 30
0.0
 10
828.5039711284505
 20
-30.09318115759646
 30
0.0
 10
828.565947883787
 20
-30.11048115047144
 30
0.0
  0
SPLINE
  5
1FF
330
1F
100
AcDbEntity
  8
0
  6
Continuous
 62
     8
370
    25
100
AcDbSpline
210
0.0
220
0.0
230
1.0
 70
     8
 71
     3
 72
     9
 73
     5
 74
     0
 42
0.00000001
 43
0.00000001
 40
0.0
 40
0.0
 40
0.0
 40
0.0
 40
0.0415140911962717
 40
1.0
 40
1.0
 40
1.0
 40
1.0
 10
828.0627619622185
 20
-30.6769567905279
 30
0.0
 10
828.0649713638884
 20
-30.67969618591665
 30
0.0
 10
828.1181918874812
 20
-30.74568330763272
 30
0.0
 10
828.1922521429493
 20
-30.778385285823
 30
0.0
 10
828.2632378542181
 20
-30.80972967110834
 30
0.0
  0
SPLINE
  5
200
330
1F
100
AcDbEntity
  8
0
  6
Continuous
 62
     8
370
    25
100
AcDbSpline
210
0.0
220
0.0
230
1.0
 70
     8
 71
     3
 72
    10
 73
     6
 74
     0
 42
0.00000001
 43
0.00000001
 40
0.0
 40
0.0
 40
0.0
 40
0.0
 40
0.2192296035403608
 40
0.4820577927400976
 40
1.0
 40
1.0
 40
1.0
 40
1.0
 10
782.0259095115588
 20
-66.02750489826975
 30
0.0
 10
782.0404253534779
 20
-66.0430831361451
 30
0.0
 10
782.0723438289124
 20
-66.07733768408785
 30
0.0
 10
782.1468118981917
 20
-66.13087403620239
 30
0.0
 10
782.2060235010227
 20
-66.15862200756212
 30
0.0
 10
782.24530289533
 20
-66.1770292699253
 30
0.0
  0
SPLINE
  5
201
330
1F
100
AcDbEntity
  8
0
  6
Continuous
 62
     8
370
    25
100
AcDbSpline
210
0.0
220
0.0
230
1.0
 70
     8
 71
     3
 72
    13
 73
     9
 74
     0
 42
0.00000001
 43
0.00000001
 40
0.0
 40
0.0
 40
0.0
 40
0.0
 40
0.136607184930128
 40
0.4385299215927497
 40
0.7508752223183129
 40
0.8357749468433984
 40
0.9297935087706304
 40
1.0
 40
1.0
 40
1.0
 40
1.0
 10
850.3326995724614
 20
-30.81365878940873
 30
0.0
 10
850.3322826245789
 20
-30.81390475565199
 30
0.0
 10
850.3309441582139
 20
-30.81469434484824
 30
0.0
 10
850.3319921216493
 20
-30.8172292526569
 30
0.0
 10
850.3085941064118
 20
-30.82289235327679
 30
0.0
 10
849.9169520307603
 20
-30.81699922706787
 30
0.0
 10
849.5831005004719
 20
-30.80133747942143
 30
0.0
 10
849.147170828598
 20
-30.79422636476781
 30
0.0
 10
848.960810147954
 20
-30.79118635108557
 30
0.0
  0
SPLINE
  5
202
330
1F
100
AcDbEntity
  8
0
  6
Continuous
 62
     8
370
    25
100
AcDbSpline
210
0.0
220
0.0
230
1.0
 70
     8
 71
     3
 72
    11
 73
     7
 74
     0
 42
0.00000001
 43
0.00000001
 40
0.0
 40
0.0
 40
0.0
 40
0.0
 40
0.267675501973222
 40
0.520297525353687
 40
0.9836298069486769
 40
1.0
 40
1.0
 40
1.0
 40
1.0
 10
802.77064400842
 20
-66.2937244047424
 30
0.0
 10
803.0910242117902
 20
-66.28883024423499
 30
0.0
 10
803.7137671440233
 20
-66.27931715998953
 30
0.0
 10
804.210027816782
 20
-66.21256468667357
 30
0.0
 10
804.2494452251422
 20
-66.18811857401202
 30
0.0
 10
804.249212052994
 20
-66.18741883543855
 30
0.0
 10
804.2492040958264
 20
-66.1873949563549
 30
0.0
  0
SPLINE
  5
203
330
1F
100
AcDbEntity
  8
0
  6
Continuous
 62
     8
370
    25
100
AcDbSpline
210
0.0
220
0.0
230
1.0
 70
     8
 71
     3
 72
     9
 73
     5
 74
     0
 42
0.00000001
 43
0.00000001
 40
0.0
 40
0.0
 40
0.0
 40
0.0
 40
0.4397168598144713
 40
1.0
 40
1.0
 40
1.0
 40
1.0
 10
781.4313142191467
 20
-66.35961949233304
 30
0.0
 10
781.4634233038911
 20
-66.381410149227
 30
0.0
 10
781.5364454862976
 20
-66.430966258818
 30
0.0
 10
781.6177686970267
 20
-66.42874470087307
 30
0.0
 10
781.663332720904
 20
-66.4274999994115
 30
0.0
  0
LINE
  5
204
330
1F
100
AcDbEntity
  8
0
  6
Continuous
 62
     7
370
    25
100
AcDbLine
 10
-25.4
 20
-837.9423399994
 30
0.0
 11
-25.4
 21
-844.2923399994
 31
0.0
  0
LINE
  5
205
330
1F
100
AcDbEntity
  8
0
  6
Continuous
 62
     7
370
    25
100
AcDbLine
 10
25.4
 20
-844.2923399994
 30
0.0
 11
25.4
 21
-837.9423399994
 31
0.0
  0
LINE
  5
206
330
1F
100
AcDbEntity
  8
0
  6
Continuous
 62
     7
370
    25
100
AcDbLine
 10
450.85
 20
-837.9423399994
 30
0.0
 11
450.85
 21
-844.2923399994
 31
0.0
  0
LINE
  5
207
330
1F
100
AcDbEntity
  8
0
  6
Continuous
 62
     7
370
    25
100
AcDbLine
 10
-501.65
 20
-837.9423399994
 30
0.0
 11
-501.65
 21
-844.2923399994
 31
0.0
  0
LINE
  5
208
330
1F
100
AcDbEntity
  8
0
  6
Continuous
 62
     7
370
    25
100
AcDbLine
 10
-450.85
 20
-844.2923399994
 30
0.0
 11
-450.85
 21
-837.9423399994
 31
0.0
  0
LINE
  5
209
330
1F
100
AcDbEntity
  8
0
  6
Continuous
 62
     7
370
    25
100
AcDbLine
 10
501.65
 20
-844.2923399994
 30
0.0
 11
501.65
 21
-837.9423399994
 31
0.0
  0
LINE
  5
20A
330
1F
100
AcDbEntity
  8
0
  6
Continuous
 62
     7
370
    25
100
AcDbLine
 10
355.6
 20
-225.6880858165
 30
0.0
 11
356.10474
 21
-224.7184892978
 31
0.0
  0
LINE
  5
20B
330
1F
100
AcDbEntity
  8
0
  6
Continuous
 62
     7
370
    25
100
AcDbLine
 10
356.10474
 20
-212.8920607009
 30
0.0
 11
355.6
 21
-211.9224641822
 31
0.0
  0
LINE
  5
20C
330
1F
100
AcDbEntity
  8
0
  6
Continuous
 62
     7
370
    25
100
AcDbLine
 10
357.55
 20
-165.3807257009
 30
0.0
 11
356.75
 21
-163.8439399994
 31
0.0
  0
LINE
  5
20D
330
1F
100
AcDbEntity
  8
0
  6
Continuous
 62
     7
370
    25
100
AcDbLine
 10
355.6
 20
-178.7439399994
 30
0.0
 11
356.75
 21
-178.7439399994
 31
0.0
  0
LINE
  5
20E
330
1F
100
AcDbEntity
  8
0
  6
Continuous
 62
     7
370
    25
100
AcDbLine
 10
356.75
 20
-163.8439399994
 30
0.0
 11
355.6
 21
-163.8439399994
 31
0.0
  0
LINE
  5
20F
330
1F
100
AcDbEntity
  8
0
  6
Continuous
 62
     7
370
    25
100
AcDbLine
 10
356.75
 20
-178.7439399994
 30
0.0
 11
357.55
 21
-177.2071542978
 31
0.0
  0
LINE
  5
210
330
1F
100
AcDbEntity
  8
0
  6
Continuous
 62
     7
370
    25
100
AcDbLine
 10
356.75
 20
-722.6439399994
 30
0.0
 11
355.6
 21
-722.6439399994
 31
0.0
  0
LINE
  5
211
330
1F
100
AcDbEntity
  8
0
  6
Continuous
 62
     7
370
    25
100
AcDbLine
 10
357.55
 20
-724.1807257009
 30
0.0
 11
356.75
 21
-722.6439399994
 31
0.0
  0
LINE
  5
212
330
1F
100
AcDbEntity
  8
0
  6
Continuous
 62
     7
370
    25
100
AcDbLine
 10
356.75
 20
-737.5439399994
 30
0.0
 11
357.55
 21
-736.0071542978
 31
0.0
  0
LINE
  5
213
330
1F
100
AcDbEntity
  8
0
  6
Continuous
 62
     7
370
    25
100
AcDbLine
 10
355.6
 20
-737.5439399994
 30
0.0
 11
356.75
 21
-737.5439399994
 31
0.0
  0
LINE
  5
214
330
1F
100
AcDbEntity
  8
0
  6
Continuous
 62
     7
370
    25
100
AcDbLine
 10
850.6119945025
 20
-30.4999706707
 30
0.0
 11
850.6728023584
 21
-30.4019705528
 31
0.0
  0
LINE
  5
215
330
1F
100
AcDbEntity
  8
0
  6
Continuous
 62
     7
370
    25
100
AcDbLine
 10
514.35
 20
-837.9423399994
 30
0.0
 11
-514.35
 21
-837.9423399994
 31
0.0
  0
LINE
  5
216
330
1F
100
AcDbEntity
  8
0
  6
Continuous
 62
     7
370
    25
100
AcDbLine
 10
-514.35
 20
-831.5923399994
 30
0.0
 11
-514.35
 21
-837.9423399994
 31
0.0
  0
LINE
  5
217
330
1F
100
AcDbEntity
  8
0
  6
Continuous
 62
     7
370
    25
100
AcDbLine
 10
514.35
 20
-831.5923399994
 30
0.0
 11
514.35
 21
-837.9423399994
 31
0.0
  0
LINE
  5
218
330
1F
100
AcDbEntity
  8
0
  6
Continuous
 62
     7
370
    25
100
AcDbLine
 10
514.35
 20
-831.5923399994
 30
0.0
 11
-514.35
 21
-831.5923399994
 31
0.0
  0
LINE
  5
219
330
1F
100
AcDbEntity
  8
0
  6
Continuous
 62
     7
370
    25
100
AcDbLine
 10
24.3623503663
 20
-844.2923399994
 30
0.0
 11
24.3623503663
 21
-837.9423399994
 31
0.0
  0
LINE
  5
21A
330
1F
100
AcDbEntity
  8
0
  6
Continuous
 62
     7
370
    25
100
AcDbLine
 10
-25.4
 20
-844.2923399994
 30
0.0
 11
25.4
 21
-844.2923399994
 31
0.0
  0
LINE
  5
21B
330
1F
100
AcDbEntity
  8
0
  6
Continuous
 62
     7
370
    25
100
AcDbLine
 10
120.65
 20
-66.4274999994
 30
0.0
 11
120.65
 21
-69.7955399994
 31
0.0
  0
LINE
  5
21C
330
1F
100
AcDbEntity
  8
0
  6
Continuous
 62
     7
370
    25
100
AcDbLine
 10
-120.65
 20
-66.4274999994
 30
0.0
 11
-120.65
 21
-69.7955399994
 31
0.0
  0
LINE
  5
21D
330
1F
100
AcDbEntity
  8
0
  6
Continuous
 62
     7
370
    25
100
AcDbLine
 10
-355.6
 20
-69.7955399994
 30
0.0
 11
355.6
 21
-69.7955399994
 31
0.0
  0
LINE
  5
21E
330
1F
100
AcDbEntity
  8
0
  6
Continuous
 62
     7
370
    25
100
AcDbLine
 10
355.6
 20
-66.4274999994
 30
0.0
 11
355.6
 21
-831.5923399994
 31
0.0
  0
LINE
  5
21F
330
1F
100
AcDbEntity
  8
0
  6
Continuous
 62
     7
370
    25
100
AcDbLine
 10
-355.6
 20
-66.4274999994
 30
0.0
 11
-355.6
 21
-831.5923399994
 31
0.0
  0
LINE
  5
220
330
1F
100
AcDbEntity
  8
0
  6
Continuous
 62
     7
370
    25
100
AcDbLine
 10
355.6
 20
-70.0495399994
 30
0.0
 11
-355.6
 21
-70.0495399994
 31
0.0
  0
LINE
  5
221
330
1F
100
AcDbEntity
  8
0
  6
Continuous
 62
     7
370
    25
100
AcDbLine
 10
354.9339069863
 20
-70.0495399994
 30
0.0
 11
354.9339069863
 21
-69.7955399994
 31
0.0
  0
LINE
  5
222
330
1F
100
AcDbEntity
  8
0
  6
Continuous
 62
     7
370
    25
100
AcDbLine
 10
-354.33
 20
-70.0495399994
 30
0.0
 11
-354.33
 21
-69.7955399994
 31
0.0
  0
LINE
  5
223
330
1F
100
AcDbEntity
  8
0
  6
Continuous
 62
     7
370
    25
100
AcDbLine
 10
484.6261389379
 20
-844.2923399994
 30
0.0
 11
484.6261389379
 21
-837.9423399994
 31
0.0
  0
LINE
  5
224
330
1F
100
AcDbEntity
  8
0
  6
Continuous
 62
     7
370
    25
100
AcDbLine
 10
450.85
 20
-844.2923399994
 30
0.0
 11
501.65
 21
-844.2923399994
 31
0.0
  0
LINE
  5
225
330
1F
100
AcDbEntity
  8
0
  6
Continuous
 62
     7
370
    25
100
AcDbLine
 10
-473.1970701222
 20
-844.2923399994
 30
0.0
 11
-473.1970701222
 21
-837.9423399994
 31
0.0
  0
LINE
  5
226
330
1F
100
AcDbEntity
  8
0
  6
Continuous
 62
     7
370
    25
100
AcDbLine
 10
-501.65
 20
-844.2923399994
 30
0.0
 11
-450.85
 21
-844.2923399994
 31
0.0
  0
LINE
  5
227
330
1F
100
AcDbEntity
  8
0
  6
Continuous
 62
     7
370
    25
100
AcDbLine
 10
356.10474
 20
-212.8920607009
 30
0.0
 11
356.10474
 21
-224.7184892978
 31
0.0
  0
LINE
  5
228
330
1F
100
AcDbEntity
  8
0
  6
Continuous
 62
     7
370
    25
100
AcDbLine
 10
356.2547356
 20
-223.4230156757
 30
0.0
 11
356.2547356
 21
-214.1730156757
 31
0.0
  0
LINE
  5
229
330
1F
100
AcDbEntity
  8
0
  6
Continuous
 62
     7
370
    25
100
AcDbLine
 10
355.6
 20
-171.2939399994
 30
0.0
 11
357.55
 21
-171.2939399994
 31
0.0
  0
LINE
  5
22A
330
1F
100
AcDbEntity
  8
0
  6
Continuous
 62
     7
370
    25
100
AcDbLine
 10
356.75
 20
-163.8439399994
 30
0.0
 11
356.75
 21
-178.7439399994
 31
0.0
  0
LINE
  5
22B
330
1F
100
AcDbEntity
  8
0
  6
Continuous
 62
     7
370
    25
100
AcDbLine
 10
357.55
 20
-165.3807257009
 30
0.0
 11
357.55
 21
-177.2071542978
 31
0.0
  0
LINE
  5
22C
330
1F
100
AcDbEntity
  8
0
  6
Continuous
 62
     7
370
    25
100
AcDbLine
 10
356.75
 20
-722.6439399994
 30
0.0
 11
356.75
 21
-737.5439399994
 31
0.0
  0
LINE
  5
22D
330
1F
100
AcDbEntity
  8
0
  6
Continuous
 62
     7
370
    25
100
AcDbLine
 10
355.6
 20
-730.0939399994
 30
0.0
 11
357.55
 21
-730.0939399994
 31
0.0
  0
LINE
  5
22E
330
1F
100
AcDbEntity
  8
0
  6
Continuous
 62
     7
370
    25
100
AcDbLine
 10
357.55
 20
-724.1807257009
 30
0.0
 11
357.55
 21
-736.0071542978
 31
0.0
  0
LINE
  5
22F
330
1F
100
AcDbEntity
  8
0
  6
Continuous
 62
     7
370
    25
100
AcDbLine
 10
357.6999956
 20
-175.926199323
 30
0.0
 11
357.6999956
 21
-166.676199323
 31
0.0
  0
LINE
  5
230
330
1F
100
AcDbEntity
  8
0
  6
Continuous
 62
     7
370
    25
100
AcDbLine
 10
357.6999956
 20
-734.726199323
 30
0.0
 11
357.6999956
 21
-725.476199323
 31
0.0
  0
LINE
  5
231
330
1F
100
AcDbEntity
  8
0
  6
Continuous
 62
     7
370
    25
100
AcDbLine
 10
-860.3859963217
 20
-3.4057010008
 30
0.0
 11
-860.3792493125
 21
-3.4108781631
 31
0.0
  0
LINE
  5
232
330
1F
100
AcDbEntity
  8
0
  6
Continuous
 62
     7
370
    25
100
AcDbLine
 10
-859.9805623331
 20
-3.7168014421
 30
0.0
 11
-856.423174504
 21
-6.4464811301
 31
0.0
  0
LINE
  5
233
330
1F
100
AcDbEntity
  8
0
  6
Continuous
 62
     7
370
    25
100
AcDbLine
 10
-860.338833816
 20
6.0057076611
 30
0.0
 11
-860.5370713768
 21
4.62331796
 31
0.0
  0
LINE
  5
234
330
1F
100
AcDbEntity
  8
0
  6
Continuous
 62
     7
370
    25
100
AcDbLine
 10
-860.9771879597
 20
-0.8566411675
 30
0.0
 11
-861.0070613327
 21
-2.1371284738
 31
0.0
  0
LINE
  5
235
330
1F
100
AcDbEntity
  8
0
  6
Continuous
 62
     7
370
    25
100
AcDbLine
 10
-858.6323842915
 20
-4.7512924258
 30
0.0
 11
-858.7463370668
 21
-4.6638543441
 31
0.0
  0
LINE
  5
236
330
1F
100
AcDbEntity
  8
0
  6
Continuous
 62
     7
370
    25
100
AcDbLine
 10
-838.55642103
 20
-2.1371284738
 30
0.0
 11
838.5564210299
 21
-2.1371284738
 31
0.0
  0
LINE
  5
237
330
1F
100
AcDbEntity
  8
0
  6
Continuous
 62
     7
370
    25
100
AcDbLine
 10
-837.8881935134
 20
6.0057076611
 30
0.0
 11
837.8881935133
 21
6.0057076611
 31
0.0
  0
LINE
  5
238
330
1F
100
AcDbEntity
  8
0
  6
Continuous
 62
     7
370
    25
100
AcDbLine
 10
-837.935356019
 20
-3.4057010008
 30
0.0
 11
837.9353560189
 21
-3.4057010008
 31
0.0
  0
LINE
  5
239
330
1F
100
AcDbEntity
  8
0
  6
Continuous
 62
     7
370
    25
100
AcDbLine
 10
-833.9725342014
 20
-6.4464811301
 30
0.0
 11
833.9725342013
 21
-6.4464811301
 31
0.0
  0
LINE
  5
23A
330
1F
100
AcDbEntity
  8
0
  6
Continuous
 62
     7
370
    25
100
AcDbLine
 10
837.9353560189
 20
-3.4057010008
 30
0.0
 11
833.9725342013
 21
-6.4464811301
 31
0.0
  0
LINE
  5
23B
330
1F
100
AcDbEntity
  8
0
  6
Continuous
 62
     7
370
    25
100
AcDbLine
 10
-837.935356019
 20
-3.4057010008
 30
0.0
 11
-833.9725342014
 21
-6.4464811301
 31
0.0
  0
LINE
  5
23C
330
1F
100
AcDbEntity
  8
0
  6
Continuous
 62
     7
370
    25
100
AcDbLine
 10
-836.3218330651
 20
7.3350000006
 30
0.0
 11
836.321833065
 21
7.3350000006
 31
0.0
  0
LINE
  5
23D
330
1F
100
AcDbEntity
  8
0
  6
Continuous
 62
     7
370
    25
100
AcDbLine
 10
-833.3658566277
 20
-7.4924919556
 30
0.0
 11
833.3658566277
 21
-7.4924919556
 31
0.0
  0
LINE
  5
23E
330
1F
100
AcDbEntity
  8
0
  6
Continuous
 62
     7
370
    25
100
AcDbLine
 10
-828.332387676
 20
-30.1105190179
 30
0.0
 11
828.332387676
 21
-30.1105190179
 31
0.0
  0
LINE
  5
23F
330
1F
100
AcDbEntity
  8
0
  6
Continuous
 62
     7
370
    25
100
AcDbLine
 10
-815.0874833592
 20
-18.8191594751
 30
0.0
 11
-815.3244217984
 21
-18.7495021895
 31
0.0
  0
LINE
  5
240
330
1F
100
AcDbEntity
  8
0
  6
Continuous
 62
     7
370
    25
100
AcDbLine
 10
-823.2418147182
 20
-18.2497577235
 30
0.0
 11
-823.0048949656
 21
-18.2142111327
 31
0.0
  0
LINE
  5
241
330
1F
100
AcDbEntity
  8
0
  6
Continuous
 62
     7
370
    25
100
AcDbLine
 10
815.0874833592
 20
-18.8191594751
 30
0.0
 11
815.3244217984
 21
-18.7495021895
 31
0.0
  0
LINE
  5
242
330
1F
100
AcDbEntity
  8
0
  6
Continuous
 62
     7
370
    25
100
AcDbLine
 10
823.2418147183
 20
-18.2497577235
 30
0.0
 11
823.0048949655
 21
-18.2142111327
 31
0.0
  0
LINE
  5
243
330
1F
100
AcDbEntity
  8
0
  6
Continuous
 62
     7
370
    25
100
AcDbLine
 10
-819.1648098214
 20
-22.2304417619
 30
0.0
 11
-819.1648098214
 21
-21.7188092513
 31
0.0
  0
LINE
  5
244
330
1F
100
AcDbEntity
  8
0
  6
Continuous
 62
     7
370
    25
100
AcDbLine
 10
819.1648098213
 20
-22.2304417395
 30
0.0
 11
819.1648098213
 21
-21.7188092513
 31
0.0
  0
LINE
  5
245
330
1F
100
AcDbEntity
  8
0
  6
Continuous
 62
     7
370
    25
100
AcDbLine
 10
-819.1648098214
 20
-20.1567356399
 30
0.0
 11
-819.1648098214
 21
-19.841098728
 31
0.0
  0
LINE
  5
246
330
1F
100
AcDbEntity
  8
0
  6
Continuous
 62
     7
370
    25
100
AcDbLine
 10
819.1648098213
 20
-20.1567356399
 30
0.0
 11
819.1648098213
 21
-19.841098728
 31
0.0
  0
LINE
  5
247
330
1F
100
AcDbEntity
  8
0
  6
Continuous
 62
     7
370
    25
100
AcDbLine
 10
-827.8870951949
 20
-30.8098197087
 30
0.0
 11
827.8870951948
 21
-30.8098197087
 31
0.0
  0
LINE
  5
248
330
1F
100
AcDbEntity
  8
0
  6
Continuous
 62
     7
370
    25
100
AcDbLine
 10
-781.800931551
 20
-66.1768811966
 30
0.0
 11
781.800931551
 21
-66.1768811966
 31
0.0
  0
LINE
  5
249
330
1F
100
AcDbEntity
  8
0
  6
Continuous
 62
     7
370
    25
100
AcDbLine
 10
-808.79052306
 20
-37.9688659707
 30
0.0
 11
-808.79052306
 21
-35.4668681254
 31
0.0
  0
LINE
  5
24A
330
1F
100
AcDbEntity
  8
0
  6
Continuous
 62
     7
370
    25
100
AcDbLine
 10
808.79052306
 20
-37.9688659707
 30
0.0
 11
808.79052306
 21
-35.4668681254
 31
0.0
  0
LINE
  5
24B
330
1F
100
AcDbEntity
  8
0
  6
Continuous
 62
     7
370
    25
100
AcDbLine
 10
-783.1418170987
 20
-57.7991130015
 30
0.0
 11
-783.1415658308
 21
-57.4543319663
 31
0.0
  0
LINE
  5
24C
330
1F
100
AcDbEntity
  8
0
  6
Continuous
 62
     7
370
    25
100
AcDbLine
 10
783.1418170986
 20
-57.7991130015
 30
0.0
 11
783.1415658308
 21
-57.4543319663
 31
0.0
  0
LINE
  5
24D
330
1F
100
AcDbEntity
  8
0
  6
Continuous
 62
     7
370
    25
100
AcDbLine
 10
-783.1374964586
 20
-57.4543332148
 30
0.0
 11
-783.1374964586
 21
-55.5399716051
 31
0.0
  0
LINE
  5
24E
330
1F
100
AcDbEntity
  8
0
  6
Continuous
 62
     7
370
    25
100
AcDbLine
 10
783.1374964585
 20
-57.4543332131
 30
0.0
 11
783.1374964585
 21
-55.5399716051
 31
0.0
  0
LINE
  5
24F
330
1F
100
AcDbEntity
  8
0
  6
Continuous
 62
     7
370
    25
100
AcDbLine
 10
-780.9448328916
 20
-66.4274999994
 30
0.0
 11
780.9448328916
 21
-66.4274999994
 31
0.0
  0
LINE
  5
250
330
1F
100
AcDbEntity
  8
0
  6
Continuous
 62
     7
370
    25
100
AcDbLine
 10
860.380412168
 20
-3.4099858726
 30
0.0
 11
856.423174504
 21
-6.4464811301
 31
0.0
  0
LINE
  5
251
330
1F
100
AcDbEntity
  8
0
  6
Continuous
 62
     7
370
    25
100
AcDbLine
 10
-837.0405036722
 20
7.3350000006
 30
0.0
 11
-836.601980187
 21
7.3350000006
 31
0.0
  0
LINE
  5
252
330
1F
100
AcDbEntity
  8
0
  6
Continuous
 62
     7
370
    25
100
AcDbLine
 10
-856.4228723567
 20
-6.4466981011
 30
0.0
 11
-858.7461010388
 21
-4.6640379839
 31
0.0
  0
LINE
  5
253
330
1F
100
AcDbEntity
  8
0
  6
Continuous
 62
     7
370
    25
100
AcDbLine
 10
-819.1648098214
 20
-18.3887174161
 30
0.0
 11
-819.1648098214
 21
-19.2553211237
 31
0.0
  0
LINE
  5
254
330
1F
100
AcDbEntity
  8
0
  6
Continuous
 62
     7
370
    25
100
AcDbLine
 10
-781.1198528916
 20
-66.4274999994
 30
0.0
 11
-781.663332721
 21
-66.4274999994
 31
0.0
  0
LINE
  5
255
330
1F
100
AcDbEntity
  8
0
  6
Continuous
 62
     7
370
    25
100
AcDbLine
 10
-856.33
 20
7.965
 30
0.0
 11
-856.33
 21
7.3350000006
 31
0.0
  0
LINE
  5
256
330
1F
100
AcDbEntity
  8
0
  6
Continuous
 62
     7
370
    25
100
AcDbLine
 10
-856.33
 20
7.965
 30
0.0
 11
856.33
 21
7.965
 31
0.0
  0
LINE
  5
257
330
1F
100
AcDbEntity
  8
0
  6
Continuous
 62
     7
370
    25
100
AcDbLine
 10
856.33
 20
7.965
 30
0.0
 11
856.33
 21
7.3350000006
 31
0.0
  0
LINE
  5
258
330
1F
100
AcDbEntity
  8
0
  6
Continuous
 62
     7
370
    25
100
AcDbLine
 10
834.3814565137
 20
-6.4466981011
 30
0.0
 11
838.3447088178
 21
-3.4055919402
 31
0.0
  0
LINE
  5
259
330
1F
100
AcDbEntity
  8
0
  6
Continuous
 62
     7
370
    25
100
AcDbLine
 10
860.3871612404
 20
-3.4118080884
 30
0.0
 11
860.3871354393
 21
-3.4121592606
 31
0.0
  0
LINE
  5
25A
330
1F
100
AcDbEntity
  8
0
  6
Continuous
 62
     7
370
    25
100
AcDbLine
 10
837.0405036721
 20
7.3350000006
 30
0.0
 11
836.601980187
 21
7.3350000006
 31
0.0
  0
LINE
  5
25B
330
1F
100
AcDbEntity
  8
0
  6
Continuous
 62
     7
370
    25
100
AcDbLine
 10
819.1648098213
 20
-18.3887174161
 30
0.0
 11
819.1648098213
 21
-19.2553211237
 31
0.0
  0
LINE
  5
25C
330
1F
100
AcDbEntity
  8
0
  6
Continuous
 62
     7
370
    25
100
AcDbLine
 10
804.2492040958
 20
-66.1873949564
 30
0.0
 11
804.2495013168
 21
-66.1832842605
 31
0.0
  0
LINE
  5
25D
330
1F
100
AcDbEntity
  8
0
  6
Continuous
 62
     7
370
    25
100
AcDbLine
 10
780.9541873404
 20
-66.4274999994
 30
0.0
 11
781.6633327209
 21
-66.4274999994
 31
0.0
  0
LINE
  5
25E
330
1F
100
AcDbEntity
  8
0
  6
Continuous
 62
     8
370
    25
100
AcDbLine
 10
127.0
 20
-66.4274999994
 30
0.0
 11
127.0
 21
-69.7955399994
 31
0.0
  0
LINE
  5
25F
330
1F
100
AcDbEntity
  8
0
  6
Continuous
 62
     8
370
    25
100
AcDbLine
 10
-127.0
 20
-69.7955399994
 30
0.0
 11
-127.0
 21
-66.4274999994
 31
0.0
  0
LINE
  5
260
330
1F
100
AcDbEntity
  8
0
  6
Continuous
 62
     8
370
    25
100
AcDbLine
 10
-336.55
 20
-66.4274999994
 30
0.0
 11
-336.55
 21
-69.7955399994
 31
0.0
  0
LINE
  5
261
330
1F
100
AcDbEntity
  8
0
  6
Continuous
 62
     8
370
    25
100
AcDbLine
 10
336.55
 20
-69.7955399994
 30
0.0
 11
336.55
 21
-66.4274999994
 31
0.0
  0
LINE
  5
262
330
1F
100
AcDbEntity
  8
0
  6
Continuous
 62
     8
370
    25
100
AcDbLine
 10
114.3
 20
-69.7955399994
 30
0.0
 11
114.3
 21
-66.4274999994
 31
0.0
  0
LINE
  5
263
330
1F
100
AcDbEntity
  8
0
  6
Continuous
 62
     8
370
    25
100
AcDbLine
 10
-114.3
 20
-66.4274999994
 30
0.0
 11
-114.3
 21
-69.7955399994
 31
0.0
  0
LINE
  5
264
330
1F
100
AcDbEntity
  8
0
  6
Continuous
 62
     8
370
    25
100
AcDbLine
 10
356.10474
 20
-218.8052749994
 30
0.0
 11
355.6
 21
-218.8052749994
 31
0.0
  0
LINE
  5
265
330
1F
100
AcDbEntity
  8
0
  6
Continuous
 62
     8
370
    25
100
AcDbLine
 10
-793.9088338356
 20
-66.4190237857
 30
0.0
 11
-793.9736580884
 21
-66.4274999994
 31
0.0
  0
LINE
  5
266
330
1F
100
AcDbEntity
  8
0
  6
Continuous
 62
     8
370
    25
100
AcDbLine
 10
-808.79052306
 20
-34.492849839
 30
0.0
 11
-808.79052306
 21
-32.6373087682
 31
0.0
  0
LINE
  5
267
330
1F
100
AcDbEntity
  8
0
  6
Continuous
 62
     8
370
    25
100
AcDbLine
 10
808.79052306
 20
-34.492849839
 30
0.0
 11
808.79052306
 21
-32.6373087682
 31
0.0
  0
LINE
  5
268
330
1F
100
AcDbEntity
  8
0
  6
Continuous
 62
     8
370
    25
100
AcDbLine
 10
-783.1374964586
 20
-54.5659533187
 30
0.0
 11
-783.1374964586
 21
-52.9692714945
 31
0.0
  0
LINE
  5
269
330
1F
100
AcDbEntity
  8
0
  6
Continuous
 62
     8
370
    25
100
AcDbLine
 10
783.1374964585
 20
-54.5659533187
 30
0.0
 11
783.1374964585
 21
-52.9692714945
 31
0.0
  0
LINE
  5
26A
330
1F
100
AcDbEntity
  8
0
  6
Continuous
 62
     8
370
    25
100
AcDbLine
 10
858.746101038
 20
-4.6640379844
 30
0.0
 11
860.3861545268
 21
-3.4055919402
 31
0.0
  0
ARC
  5
26B
330
1F
100
AcDbEntity
  8
0
  6
Continuous
 62
     7
370
    25
100
AcDbCircle
 10
355.67874
 20
-129.9052749994
 30
0.0
 40
3.111500000000051
100
AcDbArc
 50
268.549911187
 51
91.450088813
  0
ARC
  5
26C
330
1F
100
AcDbEntity
  8
0
  6
Continuous
 62
     7
370
    25
100
AcDbCircle
 10
356.0547356
 20
-223.4230156757
 30
0.0
 40
0.2000000000041382
100
AcDbArc
 50
284.4788140367
 51
359.9999999994
  0
ARC
  5
26D
330
1F
100
AcDbEntity
  8
0
  6
Continuous
 62
     7
370
    25
100
AcDbCircle
 10
356.0547356
 20
-214.1730156757
 30
0.0
 40
0.2000000000095383
100
AcDbArc
 50
0.0000000021
 51
75.5211859621
  0
ARC
  5
26E
330
1F
100
AcDbEntity
  8
0
  6
Continuous
 62
     7
370
    25
100
AcDbCircle
 10
357.4999956
 20
-166.676199323
 30
0.0
 40
0.2000000000040814
100
AcDbArc
 50
0.0000000006
 51
75.5211859633
  0
ARC
  5
26F
330
1F
100
AcDbEntity
  8
0
  6
Continuous
 62
     7
370
    25
100
AcDbCircle
 10
357.4999956
 20
-175.926199323
 30
0.0
 40
0.2000000000206228
100
AcDbArc
 50
284.4788140403
 51
359.9999999958
  0
ARC
  5
270
330
1F
100
AcDbEntity
  8
0
  6
Continuous
 62
     7
370
    25
100
AcDbCircle
 10
357.4999956
 20
-725.476199323
 30
0.0
 40
0.2000000000060709
100
AcDbArc
 50
0.000000001
 51
75.5211859627
  0
ARC
  5
271
330
1F
100
AcDbEntity
  8
0
  6
Continuous
 62
     7
370
    25
100
AcDbCircle
 10
357.4999956
 20
-734.726199323
 30
0.0
 40
0.2000000000181217
100
AcDbArc
 50
284.47881404
 51
359.9999999962
  0
ARC
  5
272
330
1F
100
AcDbEntity
  8
0
  6
Continuous
 62
     7
370
    25
100
AcDbCircle
 10
-857.5435620581
 20
6.8975000006
 30
0.0
 40
0.4463392767832943
100
AcDbArc
 50
351.9505330244
 51
78.5782463411
  0
ARC
  5
273
330
1F
100
AcDbEntity
  8
0
  6
Continuous
 62
     7
370
    25
100
AcDbCircle
 10
-819.123045511
 20
-17.9104797
 30
0.0
 40
3.808558549998669
100
AcDbArc
 50
269.3716870452
 51
359.2539503865
  0
ARC
  5
274
330
1F
100
AcDbEntity
  8
0
  6
Continuous
 62
     7
370
    25
100
AcDbCircle
 10
-819.2098880884
 20
-17.909337754
 30
0.0
 40
3.809738198217929
100
AcDbArc
 50
186.6709124642
 51
270.6779612108
  0
ARC
  5
275
330
1F
100
AcDbEntity
  8
0
  6
Continuous
 62
     7
370
    25
100
AcDbCircle
 10
819.2099410262
 20
-17.9094631744
 30
0.0
 40
3.809613413385655
100
AcDbArc
 50
269.3212203513
 51
353.4223423013
  0
ARC
  5
276
330
1F
100
AcDbEntity
  8
0
  6
Continuous
 62
     7
370
    25
100
AcDbCircle
 10
819.1262206685
 20
-17.9016254456
 30
0.0
 40
3.817378855874439
100
AcDbArc
 50
187.1693790432
 51
270.5792019424
  0
ARC
  5
277
330
1F
100
AcDbEntity
  8
0
  6
Continuous
 62
     7
370
    25
100
AcDbCircle
 10
-819.207221011
 20
-17.9600696239
 30
0.0
 40
2.197075395825135
100
AcDbArc
 50
88.8939236632
 51
271.1060763368
  0
ARC
  5
278
330
1F
100
AcDbEntity
  8
0
  6
Continuous
 62
     7
370
    25
100
AcDbCircle
 10
-819.1223986318
 20
-17.9600696239
 30
0.0
 40
2.197075395825137
100
AcDbArc
 50
268.8939236632
 51
91.1060763368
  0
ARC
  5
279
330
1F
100
AcDbEntity
  8
0
  6
Continuous
 62
     7
370
    25
100
AcDbCircle
 10
819.2072210109
 20
-17.9600696239
 30
0.0
 40
2.197075395825125
100
AcDbArc
 50
268.8939236632
 51
91.1060763368
  0
ARC
  5
27A
330
1F
100
AcDbEntity
  8
0
  6
Continuous
 62
     7
370
    25
100
AcDbCircle
 10
819.1223986317
 20
-17.9600696239
 30
0.0
 40
2.197075395825134
100
AcDbArc
 50
88.8939236632
 51
271.1060763368
  0
ARC
  5
27B
330
1F
100
AcDbEntity
  8
0
  6
Continuous
 62
     7
370
    25
100
AcDbCircle
 10
-819.189867628
 20
-17.6141544434
 30
0.0
 40
2.227085256687311
100
AcDbArc
 50
184.8448986465
 51
270.6446708109
  0
ARC
  5
27C
330
1F
100
AcDbEntity
  8
0
  6
Continuous
 62
     7
370
    25
100
AcDbCircle
 10
-819.1397520146
 20
-17.6141544436
 30
0.0
 40
2.227085256467511
100
AcDbArc
 50
269.3553291868
 51
355.1551016287
  0
ARC
  5
27D
330
1F
100
AcDbEntity
  8
0
  6
Continuous
 62
     7
370
    25
100
AcDbCircle
 10
819.1397520144
 20
-17.6141544441
 30
0.0
 40
2.227085255974364
100
AcDbArc
 50
184.8448977544
 51
270.6446708184
  0
ARC
  5
27E
330
1F
100
AcDbEntity
  8
0
  6
Continuous
 62
     7
370
    25
100
AcDbCircle
 10
819.1898676282
 20
-17.6141544441
 30
0.0
 40
2.22708525596254
100
AcDbArc
 50
269.3553291815
 51
355.1551022598
  0
ARC
  5
27F
330
1F
100
AcDbEntity
  8
0
  6
Continuous
 62
     7
370
    25
100
AcDbCircle
 10
-809.1114645062
 20
-31.1258546776
 30
0.0
 40
4.352861261899691
100
AcDbArc
 50
223.0633973193
 51
274.228320418
  0
ARC
  5
280
330
1F
100
AcDbEntity
  8
0
  6
Continuous
 62
     7
370
    25
100
AcDbCircle
 10
-808.4716383797
 20
-31.1155253211
 30
0.0
 40
4.363011762445012
100
AcDbArc
 50
265.8086172439
 51
316.6610312728
  0
ARC
  5
281
330
1F
100
AcDbEntity
  8
0
  6
Continuous
 62
     7
370
    25
100
AcDbCircle
 10
808.4716383797
 20
-31.1155253211
 30
0.0
 40
4.363011762444057
100
AcDbArc
 50
223.3389687272
 51
274.1913827561
  0
ARC
  5
282
330
1F
100
AcDbEntity
  8
0
  6
Continuous
 62
     7
370
    25
100
AcDbCircle
 10
809.1114651699
 20
-31.1258580119
 30
0.0
 40
4.352857985603731
100
AcDbArc
 50
265.7716676321
 51
316.9366917105
  0
ARC
  5
283
330
1F
100
AcDbEntity
  8
0
  6
Continuous
 62
     7
370
    25
100
AcDbCircle
 10
-782.826194159
 20
-51.150577493
 30
0.0
 40
4.400419274717421
100
AcDbArc
 50
265.9432913272
 51
315.6497621858
  0
ARC
  5
284
330
1F
100
AcDbEntity
  8
0
  6
Continuous
 62
     7
370
    25
100
AcDbCircle
 10
-783.450425994
 20
-51.1587398127
 30
0.0
 40
4.392393073549372
100
AcDbArc
 50
224.133810371
 51
274.0854139017
  0
ARC
  5
285
330
1F
100
AcDbEntity
  8
0
  6
Continuous
 62
     7
370
    25
100
AcDbCircle
 10
783.4495625022
 20
-51.1544082254
 30
0.0
 40
4.396652291576378
100
AcDbArc
 50
265.9298317996
 51
315.7513027743
  0
ARC
  5
286
330
1F
100
AcDbEntity
  8
0
  6
Continuous
 62
     7
370
    25
100
AcDbCircle
 10
782.8270855395
 20
-51.1461071468
 30
0.0
 40
4.404815525779418
100
AcDbArc
 50
224.4686596436
 51
274.0410294391
  0
ARC
  5
287
330
1F
100
AcDbEntity
  8
0
  6
Continuous
 62
     7
370
    25
100
AcDbCircle
 10
857.543562062
 20
6.8975000006
 30
0.0
 40
0.4463392767832117
100
AcDbArc
 50
101.4217536589
 51
188.0494669756
  0
ARC
  5
288
330
1F
100
AcDbEntity
  8
0
  6
Continuous
 62
     7
370
    25
100
AcDbCircle
 10
-819.1959113604
 20
-17.644432712
 30
0.0
 40
1.61118862360508
100
AcDbArc
 50
88.8939236632
 51
271.1060763368
  0
ARC
  5
289
330
1F
100
AcDbEntity
  8
0
  6
Continuous
 62
     7
370
    25
100
AcDbCircle
 10
-819.1337082823
 20
-17.644432712
 30
0.0
 40
1.611188623605076
100
AcDbArc
 50
268.8939236632
 51
91.1060763368
  0
ARC
  5
28A
330
1F
100
AcDbEntity
  8
0
  6
Continuous
 62
     7
370
    25
100
AcDbCircle
 10
819.1959113603
 20
-17.644432712
 30
0.0
 40
1.611188623605079
100
AcDbArc
 50
268.8939236632
 51
91.1060763368
  0
ARC
  5
28B
330
1F
100
AcDbEntity
  8
0
  6
Continuous
 62
     7
370
    25
100
AcDbCircle
 10
819.1337082823
 20
-17.644432712
 30
0.0
 40
1.611188623605085
100
AcDbArc
 50
88.8939236632
 51
271.1060763368
  0
ARC
  5
28C
330
1F
100
AcDbEntity
  8
0
  6
Continuous
 62
     8
370
    25
100
AcDbCircle
 10
-849.1849823579
 20
-59.2740156882
 30
0.0
 40
28.48371147664155
100
AcDbArc
 50
89.5490698862
 51
92.3095763243
  0
ENDSEC
  0
SECTION
  2
OBJECTS
  0
DICTIONARY
  5
C
330
0
100
AcDbDictionary
281
     1
  3
ACAD_GROUP
350
D
  3
ACAD_LAYOUT
350
1A
  3
ACAD_MLINESTYLE
350
17
  3
ACAD_PLOTSETTINGS
350
19
  3
ACAD_PLOTSTYLENAME
350
E
  3
ACAD_SCALELIST
350
47
  3
DWGPROPS
350
28D
  0
DICTIONARY
  5
D
102
{ACAD_REACTORS
330
C
102
}
330
C
100
AcDbDictionary
281
     1
  0
DICTIONARY
  5
1A
102
{ACAD_REACTORS
330
C
102
}
330
C
100
AcDbDictionary
281
     1
  3
Layout1
350
1E
  3
Layout2
350
26
  3
Model
350
22
  0
DICTIONARY
  5
17
102
{ACAD_REACTORS
330
C
102
}
330
C
100
AcDbDictionary
281
     1
  3
Standard
350
18
  0
DICTIONARY
  5
19
102
{ACAD_REACTORS
330
C
102
}
330
C
100
AcDbDictionary
281
     1
  0
ACDBDICTIONARYWDFLT
  5
E
102
{ACAD_REACTORS
330
C
102
}
330
C
100
AcDbDictionary
281
     1
  3
Normal
350
F
100
AcDbDictionaryWithDefault
340
F
  0
DICTIONARY
  5
47
102
{ACAD_REACTORS
330
C
102
}
330
C
100
AcDbDictionary
281
     1
  3
A0
350
48
  3
A1
350
49
  3
A2
350
4A
  3
A3
350
4B
  3
A4
350
4C
  3
A5
350
4D
  3
A6
350
4E
  3
A7
350
4F
  3
A8
350
50
  3
A9
350
51
  3
B0
350
52
  3
B1
350
53
  3
B2
350
54
  3
B3
350
55
  3
B4
350
56
  3
B5
350
57
  3
B6
350
58
  3
B7
350
59
  3
B8
350
5A
  3
B9
350
5B
  3
C0
350
5C
  3
C1
350
5D
  3
C2
350
5E
  3
C3
350
5F
  3
C4
350
60
  3
C5
350
61
  3
C6
350
62
  3
C7
350
63
  3
C8
350
64
  3
C9
350
65
  3
D0
350
66
  3
D1
350
67
  3
D2
350
68
  0
XRECORD
  5
28D
102
{ACAD_REACTORS
330
C
102
}
330
C
100
AcDbXrecord
280
     1
  1
DWGPROPS COOKIE
  2

  3

  4

  6

  7

  8
Cat
  9

300
=
301
=
302
=
303
=
304
=
305
=
306
=
307
=
308
=
309
=
 40
0.0
 41
2459703.81413265
 42
2459703.814189329
  1

 90
        0
  0
LAYOUT
  5
1E
102
{ACAD_REACTORS
330
1A
102
}
330
1A
100
AcDbPlotSettings
  1

  2
none_device
  4

  6

 40
0.0
 41
0.0
 42
0.0
 43
0.0
 44
0.0
 45
0.0
 46
0.0
 47
0.0
 48
0.0
 49
0.0
140
0.0
141
0.0
142
1.0
143
1.0
 70
   688
 72
     1
 73
     0
 74
     5
  7

 75
    16
147
1.0
148
0.0
149
0.0
100
AcDbLayout
  1
Layout1
 70
     1
 71
     1
 10
0.0
 20
0.0
 11
420.0
 21
297.0
 12
0.0
 22
0.0
 32
0.0
 14
1.0000000000E+20
 24
1.0000000000E+20
 34
1.0000000000E+20
 15
-1.0000000000E+20
 25
-1.0000000000E+20
 35
-1.0000000000E+20
146
0.0
 13
0.0
 23
0.0
 33
0.0
 16
1.0
 26
0.0
 36
0.0
 17
0.0
 27
1.0
 37
0.0
 76
     0
330
1B
  0
LAYOUT
  5
26
102
{ACAD_REACTORS
330
1A
102
}
330
1A
100
AcDbPlotSettings
  1

  2
none_device
  4

  6

 40
0.0
 41
0.0
 42
0.0
 43
0.0
 44
0.0
 45
0.0
 46
0.0
 47
0.0
 48
0.0
 49
0.0
140
0.0
141
0.0
142
1.0
143
1.0
 70
   688
 72
     1
 73
     0
 74
     5
  7

 75
    16
147
1.0
148
0.0
149
0.0
100
AcDbLayout
  1
Layout2
 70
     1
 71
     2
 10
0.0
 20
0.0
 11
0.0
 21
0.0
 12
0.0
 22
0.0
 32
0.0
 14
0.0
 24
0.0
 34
0.0
 15
0.0
 25
0.0
 35
0.0
146
0.0
 13
0.0
 23
0.0
 33
0.0
 16
1.0
 26
0.0
 36
0.0
 17
0.0
 27
1.0
 37
0.0
 76
     0
330
23
  0
LAYOUT
  5
22
102
{ACAD_REACTORS
330
1A
102
}
330
1A
100
AcDbPlotSettings
  1

  2
none_device
  4
ANSI_A_(11.00_x_8.50_Inches)
  6

 40
6.35
 41
19.05
 42
6.35000508
 43
19.05000254
 44
279.4
 45
215.9
 46
133.3500118044
 47
156.0689288735
 48
0.0
 49
0.0
140
0.0
141
0.0
142
0.0063239498
143
1.0
 70
  1696
 72
     0
 73
     0
 74
     0
  7

 75
     0
147
0.0179189148
148
-1300.4909072572
149
0.0
100
AcDbLayout
  1
Model
 70
     1
 71
     0
 10
0.0
 20
0.0
 11
420.0
 21
297.0
 12
0.0
 22
0.0
 32
0.0
 14
-861.012612926
 24
-844.2923399994
 34
0.0
 15
861.0124343225
 25
7.965
 35
0.0
146
0.0
 13
0.0
 23
0.0
 33
0.0
 16
1.0
 26
0.0
 36
0.0
 17
0.0
 27
1.0
 37
0.0
 76
     0
330
1F
331
29
  0
MLINESTYLE
  5
18
102
{ACAD_REACTORS
330
17
102
}
330
17
100
AcDbMlineStyle
  2
Standard
 70
     0
  3

 62
   256
 51
90.0
 52
90.0
 71
     2
 49
0.5
 62
   256
  6
BYLAYER
 49
-0.5
 62
   256
  6
BYLAYER
  0
ACDBPLACEHOLDER
  5
F
102
{ACAD_REACTORS
330
E
102
}
330
E
  0
SCALE
  5
48
102
{ACAD_REACTORS
330
47
102
}
330
47
100
AcDbScale
 70
     0
300
1:1
140
1.0
141
1.0
290
     1
  0
SCALE
  5
49
102
{ACAD_REACTORS
330
47
102
}
330
47
100
AcDbScale
 70
     0
300
1:2
140
1.0
141
2.0
290
     0
  0
SCALE
  5
4A
102
{ACAD_REACTORS
330
47
102
}
330
47
100
AcDbScale
 70
     0
300
1:4
140
1.0
141
4.0
290
     0
  0
SCALE
  5
4B
102
{ACAD_REACTORS
330
47
102
}
330
47
100
AcDbScale
 70
     0
300
1:5
140
1.0
141
5.0
290
     0
  0
SCALE
  5
4C
102
{ACAD_REACTORS
330
47
102
}
330
47
100
AcDbScale
 70
     0
300
1:8
140
1.0
141
8.0
290
     0
  0
SCALE
  5
4D
102
{ACAD_REACTORS
330
47
102
}
330
47
100
AcDbScale
 70
     0
300
1:10
140
1.0
141
10.0
290
     0
  0
SCALE
  5
4E
102
{ACAD_REACTORS
330
47
102
}
330
47
100
AcDbScale
 70
     0
300
1:16
140
1.0
141
16.0
290
     0
  0
SCALE
  5
4F
102
{ACAD_REACTORS
330
47
102
}
330
47
100
AcDbScale
 70
     0
300
1:20
140
1.0
141
20.0
290
     0
  0
SCALE
  5
50
102
{ACAD_REACTORS
330
47
102
}
330
47
100
AcDbScale
 70
     0
300
1:30
140
1.0
141
30.0
290
     0
  0
SCALE
  5
51
102
{ACAD_REACTORS
330
47
102
}
330
47
100
AcDbScale
 70
     0
300
1:40
140
1.0
141
40.0
290
     0
  0
SCALE
  5
52
102
{ACAD_REACTORS
330
47
102
}
330
47
100
AcDbScale
 70
     0
300
1:50
140
1.0
141
50.0
290
     0
  0
SCALE
  5
53
102
{ACAD_REACTORS
330
47
102
}
330
47
100
AcDbScale
 70
     0
300
1:100
140
1.0
141
100.0
290
     0
  0
SCALE
  5
54
102
{ACAD_REACTORS
330
47
102
}
330
47
100
AcDbScale
 70
     0
300
2:1
140
2.0
141
1.0
290
     0
  0
SCALE
  5
55
102
{ACAD_REACTORS
330
47
102
}
330
47
100
AcDbScale
 70
     0
300
4:1
140
4.0
141
1.0
290
     0
  0
SCALE
  5
56
102
{ACAD_REACTORS
330
47
102
}
330
47
100
AcDbScale
 70
     0
300
8:1
140
8.0
141
1.0
290
     0
  0
SCALE
  5
57
102
{ACAD_REACTORS
330
47
102
}
330
47
100
AcDbScale
 70
     0
300
10:1
140
10.0
141
1.0
290
     0
  0
SCALE
  5
58
102
{ACAD_REACTORS
330
47
102
}
330
47
100
AcDbScale
 70
     0
300
100:1
140
100.0
141
1.0
290
     0
  0
SCALE
  5
59
102
{ACAD_REACTORS
330
47
102
}
330
47
100
AcDbScale
 70
     0
300
1/128" = 1'-0"
140
0.0078125
141
12.0
290
     0
  0
SCALE
  5
5A
102
{ACAD_REACTORS
330
47
102
}
330
47
100
AcDbScale
 70
     0
300
1/64" = 1'-0"
140
0.015625
141
12.0
290
     0
  0
SCALE
  5
5B
102
{ACAD_REACTORS
330
47
102
}
330
47
100
AcDbScale
 70
     0
300
1/32" = 1'-0"
140
0.03125
141
12.0
290
     0
  0
SCALE
  5
5C
102
{ACAD_REACTORS
330
47
102
}
330
47
100
AcDbScale
 70
     0
300
1/16" = 1'-0"
140
0.0625
141
12.0
290
     0
  0
SCALE
  5
5D
102
{ACAD_REACTORS
330
47
102
}
330
47
100
AcDbScale
 70
     0
300
3/32" = 1'-0"
140
0.09375
141
12.0
290
     0
  0
SCALE
  5
5E
102
{ACAD_REACTORS
330
47
102
}
330
47
100
AcDbScale
 70
     0
300
1/8" = 1'-0"
140
0.125
141
12.0
290
     0
  0
SCALE
  5
5F
102
{ACAD_REACTORS
330
47
102
}
330
47
100
AcDbScale
 70
     0
300
3/16" = 1'-0"
140
0.1875
141
12.0
290
     0
  0
SCALE
  5
60
102
{ACAD_REACTORS
330
47
102
}
330
47
100
AcDbScale
 70
     0
300
1/4" = 1'-0"
140
0.25
141
12.0
290
     0
  0
SCALE
  5
61
102
{ACAD_REACTORS
330
47
102
}
330
47
100
AcDbScale
 70
     0
300
3/8" = 1'-0"
140
0.375
141
12.0
290
     0
  0
SCALE
  5
62
102
{ACAD_REACTORS
330
47
102
}
330
47
100
AcDbScale
 70
     0
300
1/2" = 1'-0"
140
0.5
141
12.0
290
     0
  0
SCALE
  5
63
102
{ACAD_REACTORS
330
47
102
}
330
47
100
AcDbScale
 70
     0
300
3/4" = 1'-0"
140
0.75
141
12.0
290
     0
  0
SCALE
  5
64
102
{ACAD_REACTORS
330
47
102
}
330
47
100
AcDbScale
 70
     0
300
1" = 1'-0"
140
1.0
141
12.0
290
     0
  0
SCALE
  5
65
102
{ACAD_REACTORS
330
47
102
}
330
47
100
AcDbScale
 70
     0
300
1-1/2" = 1'-0"
140
1.5
141
12.0
290
     0
  0
SCALE
  5
66
102
{ACAD_REACTORS
330
47
102
}
330
47
100
AcDbScale
 70
     0
300
3" = 1'-0"
140
3.0
141
12.0
290
     0
  0
SCALE
  5
67
102
{ACAD_REACTORS
330
47
102
}
330
47
100
AcDbScale
 70
     0
300
6" = 1'-0"
140
6.0
141
12.0
290
     0
  0
SCALE
  5
68
102
{ACAD_REACTORS
330
47
102
}
330
47
100
AcDbScale
 70
     0
300
1'-0" = 1'-0"
140
12.0
141
12.0
290
     0
  0
ENDSEC
  0
EOF
